» » »

We The Kings, Secret Valentine Tabs (ver.2)

Artists:  A B C D E F G H I J K L M N O P Q R S T U V W X Y Z # 

Secret Valentine Tabs (ver.2)

We The Kings Tabs
 Rating:
4/5 (4 votes)
Secret Valentine lessons Tabs too difficult? Try these video lessons and learn fast
1
                                              SECRET VALENTINE
                               WE THE KINGS
This is my second tab and i'm pretty sure its correct.

Drop D (D A D G B e)

Intro: (Distant)
|---------------|
|---9--7--6---6-|
|-6--6--6--6-8--|
|---------------|
|---------------|
|---------------|

Gets Louder... (See bottom of tab for the rhythm guitar)
|---------------|             |------------|
|---9--7--6---6-|             |---9--7--6~-|
|-6--6--6--6-8--| (REPEAT x3) |-6--6--6----|
|---------------|             |------------|
|---------------|             |------------|
|---------------|             |------------|

Verse: “Soft kiss and wine...”
|--------------------------------------------------------------------|
|--------------------------------------------------------------------|
|-6666666666666666------------------------------------------6--5-----| (REPEAT x2) 
|-6666666666666666-6666666666666666-4444444444444444444444444444446~-|
|-4444444444444444-6666666666666666-44444444444444444444444444444444-|
|------------------6666666666666666-44444444444444444444444444444444-|
PM.. .. .. .. ..   .. .. .. .. ..   .. .. .. .. ..  .. .. .. .. ..

“Secret Valentine...”
|---------|
|---------|
|---------|
|-4~---6~-|
|-4~---6~-|
|-4~---6~-|

Chorus: “We’ll write a song...”
|-----------------------------------------------------------------|
|-----------------------------------------------------------------|
|-6-------8-------3---------------6-------8-------3---------------|
|-6-(x16)-6-------3-(x16)-4-------6-(x16)-6-------3-(x16)-4-------|
|-4-------6-(x16)-1-------4-(x16)-4 ------6-(x16)-1-------4-(x16)-|
|---------6---------------4---------------6---------------4-------|

Verse (Guitar 2 plays lead on high e string...see bottom of tab) 
Chorus
Bridge: “When guilt fills your head...” (Not sure about this part)
|--------------------------------------------|
|--------------------------------------------|
|-3-333-3~-2-222-2~--------------------------|
|-3-333-3~-2-222-2~-6-666-6~-5-555-5~-4----6-|
|-1-111-1~-0-000-0~-6-666-6~-5-555-5~-4----6-|
|-------------------6-666-6~-5-555-5~-4----6-|

“Sweet Love...”
|-----------------|
|-----------------|
|-----------------|
|-1-------4-------|
|-1-(x16)-4-(x16--|
|-1-------4-------|

Chorus x2

Intro Rhythm: (These are the chords in the background of the intro)
|x466xx, 666xxx, x133xx, 444xxx|

Verse 2 Lead: (This is the lead played on the high e string)
e|-999999999999999988888888888888886666666666666666888899991111111113131313131313131313-|
            
Submit corrections

comments powered by Disqus
↑ Back to top | We The Kings Tabs for Secret Valentine. Lyrics for acoustic guitar and electric guitar. 1 Tablatures and chords are parodies/interpretations of the original songs. You may use it for private study, scholarship, research or language learning purposes only