» » »

Secret Valentine Bass tabs (ver.2)

Artists:  A B C D E F G H I J K L M N O P Q R S T U V W X Y Z # 

Secret Valentine Bass tabs (ver.2)

We The Kings
Rating:
0/5 (0 votes)

Hard to play? Try these video lessons and learn fast.
                Secret Valentine by We The Kings

Enjoy!

Intro
G|-------------------------------------------------------------------------|
D|-------------------------------------------------------------------------|
A|------------------------------------------------------------2-1----------|
D|-0-00-000-0000--6-66-666-6666--8-88-888-8888--4-44-444-4444-----4--6-----|

Verse 1

G|------------------------------------------------------------------------|
D|------------------------------------------------------------------------|
A|-444444444444444--------------------------------------------999-888-666-| x2 
D|-----------------66666666666666666-4444444444444444444444---------------|

Pre-Chorus

G|--------------|
D|--------------|
A|--------------| 
D|-2~-----4~----|

(Secret Valentine...)^^^


Chorus

G|---------------------------------------------------------------------------------|
D|---------------------------------------------------------------------------------|
A|---------------------------------------------------------------------------------|x2 
D|-00000000000000000-66666666666666666 888888888888888888-4444444444444444444444---|

(We'll write a song, that turns off the lights...)^^^


Verse 2

G|------------------------------------------------------------------------|
D|------------------------------------------------------------------------|
A|-444444444444444--------------------------------------------999-888-666-| x2 
D|-----------------66666666666666666-4444444444444444444444---------------|


Pre-Chorus
Chorus x2

Bridge

G|------------------------------------|
D|------------------------------------|
A|-1-1-1~--0-0-0~---------------------| 
D|---------------4-4-4~-33333333------|

G|--------------------------------------------------------------------|
D|---------------------------------------------------------(elevens)--|
A|-----------------------------66666666666666666-999999999-1111111111-|
D|-222222222222-44444444444444----------------------------------------|


Rest for the little piano thing
(We'll write a song, that turns out the lights..)


Outro
G|---------------------------------------------------------------------------------|
D|---------------------------------------------------------------------------------|
A|---------------------------------------------------------------------------------|x2 
D|-00000000000000000-66666666666666666 888888888888888888-4444444444444444444444---|

G|----------------------------------------------------------------------------------------------|
D|----------------------------------------------------------------------------------------------|
A|----------------------------------------------------------------------------------------------|
D|00000000000000000-66666666666666666 888888888888888888-4-44-44-44-444-4-44-44-44-444-4~-------|

(Don't waste your time, speed up your breathing) ^^^
            
Hard to play? Try these video lessons and learn fast. | Correct




comments powered by Disqus
↑ Back to top | Tablatures and chords are parodies/interpretations of the original songs. You may use it for private study, scholarship, research or language learning purposes only