» » »

Rain Falls Down Tabs (ver.2)

Artists:  A B C D E F G H I J K L M N O P Q R S T U V W X Y Z # 

Rain Falls Down Tabs (ver.2)

We The Kings
Rating:
5/5 (1 vote)

Hard to play? Try these video lessons and learn fast.
                Right, well i got bored one day and i love this song so i thought i'd tab it for your 
guys :)

drop D tuning, DADGBE



lead guitar

--------------------------------------------------------------------|
-----10-----10------10-----10--------------------------------9----9-|
--7------7-------7------7--------------10---------10------9-----9---|
-9-9----9-9-----7-7----7-7-----11-11-11---11-11-11------7--7---7-7--|
--------------------------------------------------------------------|
--------------------------------------------------------------------|

rhythm

-----------------------------------------------------------------|
-7(x16)--5(x16)/10(x16)--3(x16)----------------------------------|
-----------------------------------------------------------------|
-----------------------------------------------------------------|
-----------------------------------------------------------------|
-----------------------------------------------------------------|

this is the same until the chorus

chorus

i can feel the rain fall down

-----------------------------------------|
-----------------------------------------|
-44444444------------77777777------------|
-24444444--55555555--77777777--77777777--|    (x2)
-22222222--55555555--55555555--77777777--|
-----------55555555------------77777777--|

repeat intro/verse

repeat chorus

riff after chorus

----------------------------5-5-----5-5-----5-----------------------------|
------7-7-----7-7-----7-7-8-----7-8-----7-8--------3-3-----5-5------7-8-5-|
--7-9-----7-9-----7-9-------------------------7-6------7-6-----7-9--------|
--------------------------------------------------------------------------|
--------------------------------------------------------------------------|
--------------------------------------------------------------------------|

bridge, same chords as chorus


solo

-10--10-9--12--12-9--12-10-9-7--7-5------------------|
---10--------10----------------------8-7-5-3---7-7-5-|
------------------------------------------------7----|
-----------------------------------------------------|
-----------------------------------------------------|
-----------------------------------------------------|

chorus


end
            
Hard to play? Try these video lessons and learn fast. | Correct




comments powered by Disqus
↑ Back to top | Tablatures and chords are parodies/interpretations of the original songs. You may use it for private study, scholarship, research or language learning purposes only