» » »

We The Kings, Check Yes Juliet Tabs (ver.3)

Artists:  A B C D E F G H I J K L M N O P Q R S T U V W X Y Z # 

Check Yes Juliet Tabs (ver.3)

We The Kings Tabs
 Rating:
2.7/5 (7 votes)
Check Yes Juliet lessons Tabs too difficult? Try these video lessons and learn fast
1
                Check Yes Juliet Tab by We The Kings
Username: hero904

/=slide
~=hold
Tuning: standard

intro   g1
e|--------------------------------------------------------------------
B|--3-2-3-2-----------------------------------------------------------
G|----------2---------------------------------------------------------
D|-0-0-0-0-----4------x5----------------------------------------------
A|--------------------------------------------------------------------
E|--------------------------------------------------------------------

verse   g1
e|--------------------------------------------------------------------
B|--3-2-3-2-----------------------------------------------------------
G|----------2---------------------------------------------------------
D|-0-0-0-0-----4------x4----------------------------------------------
A|--------------------------------------------------------------------
E|--------------------------------------------------------------------

pre-chorus    both guitars
e|-x------------------------------------------------------------------
B|-x------------------------------------------------------------------
G|-x------------------------------------------------------------------
D|-x--follow rythem---------------------------------------------------
A|-x-----------------sounds best on fret 2 in my opinion--------------
E|-x------------------------------------------------------------------

chorus        both guitars
e|--------------------------------------------------------------------
B|--------------------------------------------------------------------
G|--------------------------------------------------------------------
D|-9-----12-----5-----7-----------------------------------------------
A|-9-x8--12-x8--5-x8--7-x8---------------x4---------------------------
E|-7-----10-----3-----5-----------------------------------------------

pre-verse     g1
e|--------------------------------------------------------------------
B|--3-2-3-2-----------------------------------------------------------
G|----------2---------------------------------------------------------
D|-0-0-0-0-----4------x2----------------------------------------------
A|--------------------------------------------------------------------
E|--------------------------------------------------------------------

e|--------------------------------------------------------------------
B|--------------------------------------------------------------------
G|-7------------------------------------------------------------------
D|-7----strum till verse----------------------------------------------
A|-5------------------------------------------------------------------
E|--------------------------------------------------------------------

verse2    both guitars
e|--------------------------------------------------------------------
B|--------------------------------------------------------------------
G|--7-----------------------------------------------------------------
D|--7-x16--9-----5----------------------------------------------------
A|--5------9-x8--5-x8--x2---------------------------------------------
E|---------7-----3----------------------------------------------------

pre-chorus both guitars
e|-x------------------------------------------------------------------
B|-x------------------------------------------------------------------
G|-x------------------------------------------------------------------
D|-x--follow rythem---------------------------------------------------
A|-x------------------------------------------------------------------
E|-x------------------------------------------------------------------

chorus     both guitars
e|--------------------------------------------------------------------
B|--------------------------------------------------------------------
G|--------------------------------------------------------------------
D|-9-----12-----5-----7-----------------------------------------------
A|-9-x8--12-x8--5-x8--7-x8----x4--------------------------------------
E|-7-----10-----3-----5-----------------------------------------------

breakdown    both guitars
e|--listen close to hear note changes---------------------------------------|
B|------------------------first time----second time-------------------------|
G|---------------------------------------------7~---------------------------|
D|-55555--222222-444444--|-77-7/9/7/5-|-77-7/9-7~--g2-only-holds-last-note--|
A|-55555--222222-444444--|-77-7/9/7/5-|-77-7/9-5~--g1 comes in with intro---|
E|-33333--000000-222222--|-55-5/7/5/3-|-55-5/7------------------------------|

   g1
e|--------------------------------------------------------------------
B|--3-2-3-2-----------------------------------------------------------
G|----------2---------------------------------------------------------
D|-0-0-0-0-----4------x4----------------------------------------------
A|--------------------------------------------------------------------
E|--------------------------------------------------------------------
   
all pause.....

chorus  both guitars
e|--------------------------------------------------------------------
B|--------------------------------------------------------------------
G|--------------------------------------------------------------------
D|-9-----12-----5-----7-----------------------------------------------
A|-9-x8--12-x8--5-x8--7-x8----x6--------------------------------------
E|-7-----10-----3-----5-----------------------------------------------

outro g1
e|--------------------------------------------------------------------
B|--3-2-3-2-----------------------------------------------------------
G|----------2------till the end of the song---------------------------
D|-0-0-0-0----4-------------------------------------------------------
A|--------------------------------------------------------------------
E|--------------------------------------------------------------------
            
Submit corrections

comments powered by Disqus
↑ Back to top | We The Kings Tabs for Check Yes Juliet. Lyrics for acoustic guitar and electric guitar. 1 Tablatures and chords are parodies/interpretations of the original songs. You may use it for private study, scholarship, research or language learning purposes only