» » »

We The Kings, Anna Maria All We Need Tabs (ver.1)

Artists:  A B C D E F G H I J K L M N O P Q R S T U V W X Y Z # 

Anna Maria All We Need Tabs (ver.1)

We The Kings Tabs
 Rating:
3.6/5 (5 votes)
Anna Maria All We Need lessons Tabs too difficult? Try these video lessons and learn fast
                
[Edit 16/12/2011 - Added rhythm guitar parts]

[Intro]
00:00
e|---------10-|------|-------14-10--|
B|----10------|------|----10--------|
G|-11----11---|-[x3]-|-11-----------| [x2]
D|------------|------|--------------|
A|------------|------|--------------|
E|------------|------|--------------|

00:06
e|----------|----------|----------|----------|
B|----------|----------|----------|----------|
G|-------77-|-------77-|-------77-|----------|
D|-55-77-77-|-55-99-77-|-55-77-77-|-55-99-77-|
A|-55-77-55-|-55-99-55-|-55-77-55-|-55-99-77-|
E|-33-55----|-33-77----|-33-55----|-33-77-55-|

[Verse 1]
00:20
e|---------10-|------|-------14-10--|
B|----10------|------|----10--------|
G|-11----11---|-[x3]-|-11-----------| [ through   ]
D|------------|------|--------------| [whole verse]
A|------------|------|--------------|
E|------------|------|--------------|

00:27
e|--------------------------------|
B|-12---10---------12---10--------|
G|----------9~--------------9--7~-|
D|--------------------------------|
A|--------------------------------|
E|--------------------------------|

0:34
e|------------------------------------------|
B|-12-10----------12-10----------12-10------|   [x3]
G|-------11-9-----------11-9-----------11-9-| 
D|------------12-------------12-------------| [don’t play the last 9]
A|------------------------------------------| [the last time through]
E|------------------------------------------| 

[Chorus]
00:50
e|----------|----------|----------|----------|
B|----------|----------|----------|----------|
G|-------77-|-------77-|-------77-|----------|
D|-55-77-77-|-55-99-77-|-55-77-77-|-55-99-77-|
A|-55-77-55-|-55-99-55-|-55-77-55-|-55-99-77-|
E|-33-55----|-33-77----|-33-55----|-33-77-55-|

[Verse 2]
01:08
e|---------10-|------|-------14-10--|
B|----10------|------|----10--------|
G|-11----11---|-[x3]-|-11-----------| [ through   ]
D|------------|------|--------------| [whole verse]
A|------------|------|--------------|
E|------------|------|--------------|

01:15
e|--------------------------------|
B|-12---10---------12---10--------|
G|----------9~--------------9--7~-|
D|--------------------------------|
A|--------------------------------|
E|--------------------------------|

1:21
e|------------------------------------------|
B|-12-10----------12-10----------12-10------|   
G|-------11-9-----------11-9-----------11-9-| [x3]
D|------------12-------------12-------------|
A|------------------------------------------|
E|------------------------------------------|

[Chorus]
1:43
e|----------|----------|----------|----------|
B|----------|----------|----------|----------|
G|-------77-|-------77-|-------77-|----------|
D|-55-77-77-|-55-99-77-|-55-77-77-|-55-99-77-|
A|-55-77-55-|-55-99-55-|-55-77-55-|-55-99-77-|
E|-33-55----|-33-77----|-33-55----|-33-77-55-|

[Bridge]
1:53
e|------------------------------------|------------------------------------|
B|------------------------------------|------------------------------------|
G|------------------77777777----------|------------------77777777----------|
D|-99999999-5555555-77777777-77777777-|-99999999-5555555-77777777-77777777-|
A|-99999999-5555555-55555555-77777777-|-99999999-5555555-55555555-77777777-|
E|-77777777-3333333----------55555555-|-77777777-3333333----------55555555-|

e|------------------------------------|------------------------------------|
B|------------------------------------|------------------------------------|
G|--------------------777777777777777-|------------------------------------|
D|-99999999-111111111-777777777777777-|------------------------------------|
A|-99999999-111111111-555555555555555-|------------------------------------|
E|-77777777-99999999------------------|------------------------------------|

2:20
e|-------------------------------------|
B|-------------------------------------|
G|----------------------------77777777-|
D|-55555555-77777777-99999999-77777777-|
A|-55555555-77777777-99999999-55555555-|
E|-33333333-55555555-77777777----------|

[Chorus 2]
2:29
e|------------------------------------|------------------------------------|
B|------------------------------------|------------------------------------|
G|--------------------777777777777777-|--------------------777777777777777-|
D|-55555555-777777777-777777777777777-|-55555555-777777777-777777777777777-|
A|-55555555-777777777-555555555555555-|-55555555-777777777-555555555555555-|
E|-33333333-555555555-----------------|-33333333-555555555-----------------|

[Chorus 1]
2:42
e|----------|----------|----------|----------|
B|----------|----------|----------|----------|
G|-------77-|-------77-|-------77-|----------|
D|-55-77-77-|-55-99-77-|-55-77-77-|-55-99-77-|
A|-55-77-55-|-55-99-55-|-55-77-55-|-55-99-77-|
E|-33-55----|-33-77----|-33-55----|-33-77-55-|

[Outro]
2:56
e|----------|----------|----------|----------|----|
B|----------|----------|----------|----------|----|
G|-------77-|-------77-|-------77-|----------|-7~-|
D|-55-77-77-|-55-99-77-|-55-77-77-|-55-99-77-|-7~-|
A|-55-77-55-|-55-99-55-|-55-77-55-|-55-99-77-|-5~-|
E|-33-55----|-33-77----|-33-55----|-33-77-55-|----|
            
Submit corrections

comments powered by Disqus
↑ Back to top | We The Kings Tabs for Anna Maria All We Need. Lyrics for acoustic guitar and electric guitar. Tablatures and chords are parodies/interpretations of the original songs. You may use it for private study, scholarship, research or language learning purposes only