>
 >
Tear It Down

Tear It Down Guitar Tabs

Wes Montgomery - Tear It Down chords, tabs, tablatures, lyrics

Guitar lessons | Add/correct | Request | Top 50 tabs Artists:  A B C D E F G H I J K L M N O P Q R S T U V W X Y Z 0-9

Tear It Down Guitar Tabs – Wes Montgomery

CD, Sheet music, Poster

Do you like Tear It Down? Share with your friends now
Tabs
Tear It Down  -  Wes Montgomery
Lead Guitar



                                       Cm9     F9                           
E||----------------------||------------10------8--|------------------------|
B||----------------------||---6--------8-------8--|--------10--------------|
G||-----------------7----||*-----------8-------8--|--------------10--------|
D||---------5----8-------||*-----------8-------7--|--------------------12--|
A||------6---------------||--------------------8--|------------------------|
E||----------------------||-----------------------|------------------------|


            Cm9     F9                                    Cm9     F9  
------------10------8--|----------------------|-----------10------8--|
------------8-------8--|----------------------|--6--------8-------8--|
--10--------8-------8--|-----------------7----|-----------8-------8--|
------------8-------7--|---------5----8-------|-----------8-------7--|
--------------------8--|------6---------------|-------------------8--|
-----------------------|----------------------|----------------------|


                                     Cm9     F9                            
------------------------|------------10------8--|----------------------6--|
--------10--------------|------------8-------8--|-------------------8-----|
--------------10--------|--10--------8-------8--|-------------5--8--------|
--------------------12--|------------8-------7--|----5--6--8--------------|
------------------------|--------------------8--|-------------------------|
------------------------|-----------------------|-------------------------|


        Bb7                    Eb7M           Ebm7                    
--------6-------------|--------------------|-----6-------------------|
--------6----6--------|--------8--------6--|--7-----9--7--6----------|
--------7-------7-----|--------7-----------|-------------------9--7--|
--------6----------8--|--------8-----------|-------------------------|
----------------------|--------6-----------|-------------------------|
----------------------|--------------------|-------------------------|


  Bb7M         D7            Gm                                            
--------------------------|---------------------|-------------------------|
--------------------------|---------------------|-------------------------|
------8--7--5--7-------5--|-----------5---------|----------------------5--|
--------------------7-----|--------7-----8------|----------4/-5--7--8-----|
--------------------------|---------------------|----5--7-----------------|
--------------------------|---------------------|-------------------------|


                                                   Dm7/5-   G7        
-----------------------|-----------------------||--------------------|
-----------------------|-----------------------||--------------------|
--7--------------------|-----------------7----*||--7-----------------|
-------8---------7-----|---------5----8-------*||-----------------5--|
------------7-------6--|------6----------------||--------------------|
-----------------------|-----------------------||--------------------|


  Cm7                                F7            Bb                       
-------------------6----|-----------------------|--------------------------|
-----------6--8---------|--8--------------------|-----------------------6--|
--5--7--8---------------|-------8----5----------|--------5-----------7-----|
------------------------|-----------------7--8--|--8--7-----8--7--8--------|
------------------------|-----------------------|--------------------------|
------------------------|-----------------------|--------------------------|


                              Cm9                      
--5--6--8--9--10--9--8--6--|--5-----------------------|
---------------------------|-----8--6-----------------|
---------------------------|-----------8--7-----7-----|
---------------------------|-----------------5-----8--|
---------------------------|--------------------------|
---------------------------|--------------------------|


  F7                     Cm9                  F7                    
----------------------|--------------------|--------5--8--5--8--5--|
-----6----------------|--------------------|-----------------------|
--5---------7---------|--------------------|-----------------------|
-------------------8--|--5--5--------------|-----------------------|
----------------------|--------------------|-----------------------|
----------------------|--------------------|-----------------------|


  Cm9                      F7                       Cm9                
-------5----------------|------------------------|--------------------|
----6-----6-------6-----|------------------------|--------------------|
---------------7-----7--|------------5--7--------|--------------------|
------------------------|----8----5--------8--5--|--------------------|
------------------------|------------------------|--7-----------------|
------------------------|------------------------|-------8/-----------|


  F7                      Bb7                        Eb7M                 
------------11p-10--8--|--------------------------|----------------------|
-----------------------|--11----8-----------------|----------------------|
-----------------------|-----------10----8/-7-----|--7-------------------|
-----------------------|-----------------------8--|-------8/-10----------|
-----------------------|--------------------------|----------------------|
-----------------------|--------------------------|----------------------|


  Ebm7                             D7                             
--------------------------------|--------------------------------|
------------11------------------|--------------------------------|
----10/-11------13--11/-10------|--------------------------------|
----------------------------13--|--12--10------------13--12------|
--------------------------------|----------13--12------------12--|
--------------------------------|--------------------------------|


  Gm                                 C7                               
----------------------------------|----------------------------------|
----------------------------------|----------------------10--12------|
----------------------------------|--------------10--13----------13/-|
--12------10----------------------|------10--12----------------------|
------12------13--12------10--12--|--13------------------------------|
----------------------13----------|----------------------------------|


  F7                                                              
------------------------------|----------------------------------|
------------------------------|----------------------------------|
--14--10----------------------|----------------------14----------|
----------13------12--11------|--10----------12--15------15--16--|
--------------------------13--|------12/-14----------------------|
------------------------------|----------------------------------|


  Cm9                        F7                             
--------------------------|--------13----------------------|
--------16----15----------|--------15----11----------------|
--------------------15----|--12--------------12------------|
--17----------------------|----------------------13/-12----|
--------------------------|--------------------------------|
--------------------------|--------------------------------|


  Cm9                           F                          
-----------------------------|----------------------------|
-----------------------------|----------------------------|
-----------------------------|----------------------------|
--12----8--------------------|------------12------10--12--|
-----------10----------------|--------13------13----------|
---------------11/-10--------|----------------------------|


  Cm                                 F                            
--------------10------------------|------------------------------|
----------11------13--10--12------|------11----------10----------|
------12----------------------12--|----------12----------10------|
--13------------------------------|--------------13----------12--|
----------------------------------|------------------------------|
----------------------------------|------------------------------|


  Cm                             F                            
------------------------------|------------------------------|
------------------------------|---------------------------4/-|
--12--11--10--9--8--7---------|------------------------5-----|
-----------------------10--8--|--7---------------5/-6--------|
------------------------------|-----10--8--6--5--------------|
------------------------------|------------------------------|


  Bb7                          Eb7M                    
--------------10--8---------|-------------------------|
--3--6/-9--6---------11--8/-|--3----------------------|
----------------------------|---------------------10/-|
----------------------------|-------------12--13------|
----------------------------|-------------------------|
----------------------------|-------------------------|


  Ebm7            Ab7                Dm7/5-                         
----------------------------------|--------------------------------|
------11--------------------------|--------------------------------|
--11------13--11/-10--------------|----------------------12--------|
----------------------13--12--10--|----------10----------------12--|
----------------------------------|--12--13------13/-14------------|
----------------------------------|--------------------------------|


                                     F7                       
----------------------10----13----|----------10--11--10------|
------------------11--------------|----------------------11--|
--10----------12------------------|--------------------------|
------12--13----------------------|--------------------------|
----------------------------------|--------------------------|
----------------------------------|--------------------------|


  Bb                                              Cm                   
------------8-------|--7-----------------------|--10------------10----|
-----------------9--|-----9---------8----------|----------------------|
--------------------|--------10--7-----8-------|--7-------------7-----|
--------------------|---------------------9----|----------------------|
--------------------|--------------------------|----------------------|
--------------------|--------------------------|----------------------|


                                                                    
---------------------|----------10----------|----------------------|
--------8------7--8--|----------------11----|--8-------------------|
--------8------7--8--|----------7-----------|-------8----5----8----|
--------8------7--8--|----------------8-----|--5-------------------|
---------------------|----------------------|-------6----3----6----|
---------------------|----------------------|----------------------|


                                                                      
--10------------10----|---------------------|--------13----10--------|
----------------------|----------8----7--8--|--------------------11--|
--7-------------7-----|----------8----7--8--|--------10----7---------|
----------------------|----------8----7--8--|--------------------8---|
----------------------|---------------------|------------------------|
----------------------|---------------------|------------------------|


                                                                           
--10--------------------|--10/-11------10----9--10--|---------------------|
--------11----8---------|---------------------------|--------8----8----7--|
--7----------------8----|--7/--8-------7-----6--7---|--------8----8----7--|
--------8-----5---------|---------------------------|--------8----8----7--|
-------------------6----|---------------------------|---------------------|
------------------------|---------------------------|---------------------|


                                                         Cm7    Cm9         
-------13----10----------|--10------------------------|--3-----------------|
--8----------------11----|--------11--8---------------|--4------3----------|
--8----10----7-----------|--7------------8--7----5----|--3------3----------|
--8----------------8-----|--------8---5---------------|--5------1----------|
-------------------------|---------------6--5----3----|---------3----------|
-------------------------|----------------------------|--------------------|


  Cm7    Cm9           Cm7    Cm9             Cm                    
--3-----------------|--3-------------10----|-----------------------|
--4------3----------|--4------3------------|--8----11----8---------|
--3------3----------|--3------3------7-----|------------------9----|
--5------1----------|--5------1------------|--5----8-----5---------|
---------3----------|---------3------------|------------------7----|
--------------------|----------------------|-----------------------|


  Cm9    Cm7           Cm9    Cm7           Cm9    Cm7           
---------3----------|---------3----------|---------3------------|
--3------4----------|--3------4----------|--3------4---------8--|
--3------3----------|--3------3----------|--3------3------8-----|
--1------5----------|--1------5----------|--1------5---------5--|
--3-----------------|--3-----------------|--3-------------6-----|
--------------------|--------------------|----------------------|


  Cm                         Cm9    Cm7           Cm9    Cm7         
--------10----13----10----|---------3----------|---------3----------|
----11--------------------|--3------4----------|--3------4----------|
--------7-----10----7-----|--3------3----------|--3------3----------|
----8---------------------|--1------5----------|--1------5----------|
--------------------------|--3-----------------|--3-----------------|
--------------------------|--------------------|--------------------|


  Cm9    Cm7                Cm                                  
---------3---------------|---------------10-10-10--13-13-13----|
--3------4-----------8-8-|--8--11-11-11------------------------|
--3------3----8-8-8------|---------------7--7--7---10-10-10----|
--1------5-----------5-5-|--5--8--8--8-------------------------|
--3-----------6-6-6------|-------------------------------------|
-------------------------|-------------------------------------|


  Cm9    Cm7           Cm9    Cm7           Cm9    Cm7           
---------3----------|---------3----------|---------3------13----|
--3------4----------|--3------4----------|--3------4------------|
--3------3----------|--3------3----------|--3------3------10----|
--1------5----------|--1------5----------|--1------5------------|
--3-----------------|--3-----------------|--3-------------------|
--------------------|--------------------|----------------------|


                             Cm9    Cm7           Cm9    Cm7         
--17----13----10----------|---------3----------|---------3----------|
--------------------11----|--3------4----------|--3------4----------|
--14----10----7-----------|--3------3----------|--3------3----------|
--------------------8-----|--1------5----------|--1------5----------|
--------------------------|--3-----------------|--3-----------------|
--------------------------|--------------------|--------------------|


  Cm9    Cm7               Cm                         Cm9    Cm7         
---------3--------------|----------10--13----10----|---------3----------|
--3------4-----------8--|----11--------------------|--3------4----------|
--3------3----8-8-8-----|----------7---10----7-----|--3------3----------|
--1------5-----------5--|----8---------------------|--1------5----------|
--3-----------6-6-6-----|--------------------------|--3-----------------|
------------------------|--------------------------|--------------------|


  Cm9    Cm7           Cm9    Cm7             Cm                   
---------3----------|---------3------------|----------10----------|
--3------4----------|--3------4--------11--|----------------11----|
--3------3----------|--3------3------------|----------7-----------|
--1------5----------|--1------5--------8---|----------------8-----|
--3-----------------|--3-------------------|----------------------|
--------------------|----------------------|----------------------|


                                                                          
-----------8------------|-----------6----------|-------------------------|
--8-----------10--------|--------------8-------|-----------10------------|
-----------5------10----|--7--------3-----8----|--5------------10--7-----|
--5-----------7---------|--------------5-------|-----------7----------8--|
------------------8-----|--5--------------6----|--3------------8---5-----|
------------------------|----------------------|----------------------6--|


                                                                     
---------------------|-----------------------|----------------------|
--------8------------|-----------------------|---------10-----------|
-------------8--8----|--7------6--7----6--7--|------7----------8----|
--------5------------|-----------------------|---------7------------|
-------------6--6----|--5------4--5----4--5--|------5----------6----|
---------------------|-----------------------|----------------------|


                                                                         
-----------------------|------13----10----------|-----------------------|
-----------------------|------------------11----|-----------------------|
--7------6--7----6--7--|------10----7-----------|--7------6--7----6--7--|
-----------------------|------------------8-----|-----------------------|
--5------4--5----4--5--|------------------------|--5------4--5----4--5--|
-----------------------|------------------------|-----------------------|


                                                                        
----------------10----|-----------------------|------15----13----10----|
-----------8----------|-----------------------|------------------------|
------8---------7-----|--7------6--7----6--7--|------12----10----7-----|
-----------5----------|-----------------------|------------------------|
------6---------------|--5------4--5----4--5--|------------------------|
----------------------|-----------------------|------------------------|


                                                             
-----------------------|----13-13-13--10-10-10--------------|
-----------------------|------------------------11-11-11----|
--7------6--7----6--7--|----10-10-10--7--7--7---------------|
-----------------------|------------------------8--8--8-----|
--5------4--5----4--5--|------------------------------------|
-----------------------|------------------------------------|


                                                          
-----------------------|----10-10-10---------------------|
-----------------------|--------------11-11-11--8-8-8----|
--7------6--7----6--7--|----7--7--7----------------------|
-----------------------|--------------8--8--8---5-5-5----|
--5------4--5----4--5--|---------------------------------|
-----------------------|---------------------------------|


                                                       
-----------------------|------------------------------|
-----------------------|----11-11-11--8-8-8-----------|
--7------6--7----6--7--|---------------------7-7-7----|
-----------------------|----8--8--8---5-5-5-----------|
--5------4--5----4--5--|---------------------5-5-5----|
-----------------------|------------------------------|


                                                                           
-----------------------|--------------------9--|--10--9--10---------------|
-----------------------|---------8----11-------|---------------11----8----|
--7------6--7----6--7--|----8---------------6--|--7---6--7----------------|
-----------------------|---------5----8--------|---------------8-----5----|
--5------4--5----4--5--|----6------------------|--------------------------|
-----------------------|-----------------------|--------------------------|


                                                                           
--------9--10------11/-|--10--9--10---------------|--------9--10------11--|
-----------------------|---------------11---------|-----------------------|
--------6--7-------8/--|--7---6--7-----------8----|--------6--7-------8---|
-----------------------|---------------8----------|-----------------------|
-----------------------|---------------------6----|-----------------------|
-----------------------|--------------------------|-----------------------|


                                                        
--10--9--10----------8--7--|--8------------------------|
---------------11----------|-------10----11--10--11----|
--7---6--7-----------5--4--|--5------------------------|
---------------8-----------|-------7-----8---7---8-----|
---------------------------|---------------------------|
---------------------------|---------------------------|


                                                                          
--------------------------|------------------------|---------------------|
--8----10--9--10----------|--8/-7/-8-------8-------|---------------------|
--------------------10----|-----------8---------8--|--10----8------------|
--5----7---6--7-----------|--5/-4/-5-------5-------|---------------------|
--------------------8-----|-----------6---------6--|--8-----6------------|
--------------------------|------------------------|---------------------|


                                                                          
------------------------|---------------------|--10----15----10----------|
---------8----11----10--|---------------------|----------------------11--|
----8-------------------|--10----8------------|--7-----12----7-----------|
---------5----8-----7---|---------------------|----------------------8---|
----6-------------------|--8-----6------------|--------------------------|
------------------------|---------------------|--------------------------|


                                                                       
-----------------10--|----15------10----------|-------------------10--|
---------------------|------------------11----|-----------------------|
------8----------7---|----12------7-----------|--10----8----------7---|
---------------------|------------------8-----|-----------------------|
------6--------------|------------------------|--8-----6--------------|
---------------------|------------------------|-----------------------|


                                                      
----13----15----17----15--|----13----10--------------|
--------------------------|----------------10----11--|
----10----12----14----12--|----10----7---------------|
--------------------------|----------------7-----8---|
--------------------------|--------------------------|
--------------------------|--------------------------|


                                                    
--10---------------8--10--|---------------8--------|
--------11----8-----------|----11----8---------10--|
--7----------------5--7---|---------------5--------|
--------8-----5-----------|----8-----5---------7---|
--------------------------|------------------------|
--------------------------|------------------------|


                                                                           
--------------------------|-----------------------|-----------------------|
--------11----8-------10--|----------8------------|-------6---------------|
--10---------------8------|----10---------8----7--|--5---------7----7--5--|
--------8-----5-------7---|----------5------------|-------3---------------|
--8----------------6------|----8----------6----5--|--3---------5----5--3--|
--------------------------|-----------------------|-----------------------|


                                                     
------------------------|--------------8----10--11--|
------------------------|--10----11-----------------|
----7----8----10----10--|--------------5----7---8---|
------------------------|--7-----8------------------|
----5----6----8-----8---|---------------------------|
------------------------|---------------------------|


                                                    
------10--11--10----------|------------------------|
--------------------12----|--8---------------------|
------7---8---7-----------|-----8--7------4--------|
--------------------9-----|--5---------------------|
--------------------------|-----6--5------2--------|
--------------------------|------------------------|


                                                      
--11----10--11--10----------|------------------------|
----------------------11----|------------------------|
--8-----7---8---7-----------|----8--8--7----4--------|
----------------------8-----|------------------------|
----------------------------|----6--6--5----2--------|
----------------------------|------------------------|


                                                       
--11----10--11/-10----------|-------------------------|
----------------------11----|-------------------------|
--8-----7---8/--7-----------|----8--8--7------8--7----|
----------------------8-----|-------------------------|
----------------------------|----6--6--5------6--5----|
----------------------------|-------------------------|


                                                                          
------------------10----|--13------10------------|--10-------------------|
-------8----11----------|------------------11----|----------11------8----|
--8---------------7-----|--10------7-------------|--7--------------------|
-------5----8-----------|------------------8-----|----------8-------5----|
--6---------------------|------------------------|-----------------------|
------------------------|------------------------|-----------------------|


                                                                            
-----------------------|---------------8----10--|--13------10--------------|
--11------8------------|----8----11-------------|----------------11--11----|
-----------------7--8--|---------------5----7---|--10------7---------------|
--8-------5------------|----5----8--------------|----------------8---8-----|
-----------------5--6--|------------------------|--------------------------|
-----------------------|------------------------|--------------------------|


                                                      
--10---------------------||--------------------------|
----------11----10--8----||---11------8----11/-8--6--|
--7----------------------||*-------------------------|
----------8-----7---5----||*--8-------5----8/--5--3--|
-------------------------||--------------------------|
-------------------------||--------------------------|


                                                                       4x
----------------------|--------------------------|---------------------||
----------------------|---------------11--10-----|---------------------||
--7----7----7----7----|--7----7----7----------7--|--7--7--------------*||
----------------------|---------------8---7------|--------------------*||
--5----5----5----5----|--5----5----5----------5--|--5--5---------------||
----------------------|--------------------------|---------------------||





Comments


Popular Wes Montgomery tabs & chords
Besame Mucho Intro Tabs
Bumpin Tabs
Bumpin Intro Tabs
Far Wes Tabs
Four On Six Tabs
Mr Walker Tabs
Road Song Tabs
Serene Tabs
West Coast Blues 1 Tabs
One For My Baby Ukulele


Song lyrics



↑ Back to top | Tablatures and chords are parodies/interpretations of the original songs. You may use it for private study, scholarship, research or language learning purposes only
© 2014 AZChords.com Contact us | Privacy policy | DMCA | Add/correct tabs | Request tabs | Top 50 tabs