» » »

Wes Montgomery, Serene Tabs (ver.1)

Artists:  A B C D E F G H I J K L M N O P Q R S T U V W X Y Z # 

Serene Tabs (ver.1)

Wes Montgomery Tabs
 Rating:
4/5 (4 votes)
Serene lessons Tabs too difficult? Try these video lessons and learn fast
1
                Serene   -   Wes Montgomery
Lead Guitar



                 Bdim    F#m7           B7   B13     
E||--------------4----|------9--11--12--------------|
B||--------------3----|--10-------------7----9--10--|
G||--------------4----|--9--------------8----8------|
D||--------------3----|--11-------------7----7------|
A||-------------------|--9--------------------------|
E||-------------------|-----------------7----7------|


  G#m7          C#m7             A7M       E/G#       
----------11------------------|----------------------|
--12--14----------------9-----|-----7---------5------|
--11------------9---11-----9--|--6---------4---------|
--13------------9-------------|--6---------2---------|
--11------------11------------|----------------------|
----------------9-------------|--5---------4---------|


  F#m7     A#mB11-  B9-     B11                  E7M            
-------------------------|------------------||---11------------|
--------2--5--5--7--7----|-------9----12----||-----------------|
--2--4-----6--6-----5----|--9---------------||*--8-------------|
--2--------6--7-----7----|-------6----9-----||*----------------|
-------------------------|--7---------------||-----------------|
--2--------6--7-----7----|------------------||-----------------|


  C#m7             F#m7            B11                E7M               
------7/--------|---------------|------------------|--11----11----9----|
----------------|---------------|-------9----12----|-------------------|
------4/-----6/-|--9------------|--9---------------|--8-----8-----6----|
----------------|---------------|-------6----9-----|-------------------|
-------------4/-|--7------------|--7---------------|-------------------|
----------------|---------------|------------------|-------------------|


  G#m7 G7   C#m7     Bm7             E7                A7M           
--7---------------|---------------|-----------------|---------------|
-------9----5-----|---------------|-----------------|---------------|
--4------------4--|--7------------|--6----7----9----|--9------------|
-------6----2-----|---------------|-----------------|---------------|
---------------2--|--5------------|--4----5----7----|--7------------|
------------------|---------------|-----------------|---------------|


  G7/5-             F#m7            B11                E7M            
-----------------|---------------|------------------|----------------|
-----------------|---------------|------------------|----------------|
------6----7/-9--|--9------------|--6----9----11----|--13------------|
-----------------|---------------|------------------|----------------|
------4----5/-7--|--7------------|--4----7----9-----|--11------------|
-----------------|---------------|------------------|----------------|


  B11                B7/9-            B11                
------------------|----------------|-------------------||
----------10/-12--|--12------------|-------9----12-----||
------------------|----------------|--9---------------*||
----------7/--9---|--9-------------|-------6----9-----*||
------------------|----------------|--7----------------||
------------------|----------------|-------------------||


  B11                 E7M              B11                   E7M           
-------------------|----------------|---------------------|---------------|
-------------------|--9----9--------|-----------------12--|--9------------|
--6----9----11-----|----------------|-------------11------|---------------|
----------------9--|--6----6--------|------9--11------9---|--6------------|
--4----7----9------|----------------|-------------9-------|---------------|
----------------7--|----------------|------7--9-----------|---------------|


                    D13             G7               Gm9            
-----------------|---------------|----------------|----------------|
-----------------|---------------|----------------|----------------|
-------1----4----|--4------------|----------------|----------------|
--2--------------|---------------|------5---------|-------7--------|
-----------------|---------------|-------------6--|--5-------------|
-----------------|---------------|----------------|----------------|


  C9/5-            B9/5+            F7/5-            E7M           
----------------|----------------|----------------|---------------|
----------------|----------------|----------------|---------------|
----------------|----------------|----------------|---------------|
------5---------|-------5--------|------4---------|---------------|
-----------5----|--3-------------|-----------6----|---------------|
----------------|----------------|----------------|--7------------|


  B7/9-           C#m7                  B/D# F#7     B7M             
---------------|----------------|--4--------------|-------9----7----|
---------------|----------------|-------7----5----|--4--------------|
---------------|-----------4----|-----------------|-----------------|
--7------------|------6---------|-----------------|-----------------|
---------------|----------------|-----------------|-----------------|
---------------|----------------|-----------------|-----------------|


  G#m7             C#m7  D#m7  E7M      F#7     F#m7             
----------------|--------------------|------------------12------|
--7-------------|--5-----7-----9-----|--11------12--10------10--|
-----------8----|-----6-----8-----9--|------11------------------|
----------------|--------------------|--------------------------|
----------------|--------------------|--------------------------|
----------------|--------------------|--------------------------|


                       B11         B11       B13     F#13/9-         
---------------|----------------|------------7----|--11-------------|
--9------------|-------5--------|--5----9----9----|--8--------------|
---------------|--6-------------|--6---------8----|--9--------------|
---------------|----------------|--7---------7----|--8---------8----|
---------------|----------------|-----------------|-----------------|
---------------|----------------|--7--------------|--0--------------|


       A13/9-         E13/9-                G13/9-         Bm9            
-------14----12----|--9-------------|-------12----10----|--9-------------|
-------11----------|--6-------------|-------9-----------|--7-------------|
-------12----------|--7-------------|-------10----------|--7-------------|
-------11----------|--6--------6----|-------9-----------|--7--------7----|
-------------------|----------------|-------------------|----------------|
--0----------------|----------------|--0----------------|----------------|


       E9-          A7M9                                            
-------7----5----|--4------------|-------3---------|---------------|
-------6---------|--2------------|-------5----6/---|--5------------|
-------7---------|--4------------|-------4---------|--3------------|
-------6---------|--2------------|-------3---------|--5------------|
-------7---------|--0------------|-----------------|--3------------|
--0--------------|---------------|--3--------------|---------------|


      C9           F#m11                             E7M9          
----------------|---------------|-----------------|--7------------|
------3---------|--0------------|-----------------|--7------------|
------3----5----|--2------------|--------4--6--8--|--8------------|
------2---------|--2------------|-----------------|--6------------|
------3---------|---------------|--------2--4--6--|--7------------|
------0---------|--2------------|-----------------|---------------|


  B13             E7M9            B13             E7M9          
--7------------|--7------------|--7------------|--7------------|
--9------------|--7------------|--9------------|--7------------|
--8------------|--8------------|--8------------|--8------------|
--7------------|--6------------|--7------------|--6------------|
---------------|--7------------|---------------|--7------------|
--7------------|---------------|--7------------|--0------------|


  B11             E7M9+/5-        E              B     
---------------|---------------|--0----2----4----7----|
--5------------|--4------------|--0---------5----7----|
--6------------|--3------------|--1----4----4----8----|
--7------------|--5------------|--2-------------------|
---------------|---------------|----------------------|
--7------------|--0------------|--0-------------------|


  E                    
--12-----------------||
--9-------------0----||
--9-------------1----||
---------------------||
---------------------||
----------------0----||
            
Submit corrections

comments powered by Disqus
↑ Back to top | Wes Montgomery Tabs for Serene. Lyrics for acoustic guitar and electric guitar. 1 Tablatures and chords are parodies/interpretations of the original songs. You may use it for private study, scholarship, research or language learning purposes only