>
 >
Mr Walker

Mr Walker Guitar Tabs

Wes Montgomery - Mr Walker chords, tabs, tablatures, lyrics

Guitar lessons | Add/correct | Request | Top 50 tabs Artists:  A B C D E F G H I J K L M N O P Q R S T U V W X Y Z 0-9

Mr Walker Guitar Tabs – Wes Montgomery

CD, Sheet music, Poster

Do you like Mr Walker? Share with your friends now
Tabs
Wes Montgomery - Mr. Walker                                  


Lead Guitar
                             Bb9                      Db7M                
E||---------------------||---8------8--------------|---------------------|
B||-------------6----9--||----------6----11--9--6--|--------6------------|
G||--------5------------||*--5------7--------------|--------5----6----8--|
D||-------------3----6--||*---------6----8---6--3--|--------6------------|
A||--------3------------||-------------------------|--------4----4----6--|
E||---------------------||-------------------------|---------------------|


  Bbm7   D9+    Db7                             Fm7        Bb          
---------------------|-----------------------|------------------------|
--6------6------6----|--------------8-----6--|-------1--------3----1--|
--6------5------4----|------5----8-----8-----|-------1--------3----1--|
--6------4------3----|--------------5-----3--|----1-----------3-------|
---------5------4----|------3----6-----6-----|----------3--1----------|
--6------------------|-----------------------|------------------------|


  Fm7        Bb            Fm7         Bb            Fm7                    
------------------------|-------------------------|-----------------------||
-------1--------3-------|--1-----1--------3-------|--1-----------6----9---||
-------1--------3-------|--1-----1--------3-------|--1------5------------*||
----1-----------3-------|-----1-----------3-------|--1-----------3----6--*||
----------3--1-------3--|-----------3--1-------3--|---------3-------------||
------------------------|-------------------------|-----------------------||


  Fm7         Bb           Bb13                                         
------------------------|--8----8--------------|---------8--6--6-------|
--1-----1--------3------|--8----8-----------6--|----9-------------6----|
--1-----1--------3------|--7----7------5-------|---------5--3--3-------|
-----1-----------3------|--6----6-----------3--|----6-------------3----|
-----------3--1---------|--------------3-------|-----------------------|
------------------------|----------------------|-----------------------|


  Bb13                                               Bb13                 
--8----8----------8--11--|----8-------6-6-6--6----|--8----8--------------|
--8----8----6--9---------|---------6--------------|--8----8-----------6--|
--7----7----------5--8---|----5-------3-3-3--3----|--7----7------5-------|
--6----6----3--6---------|---------3--------------|--6----6-----------3--|
-------------------------|------------------------|--------------3-------|
-------------------------|------------------------|----------------------|


                          Bb13                                         
---------8--6--6-------|--8----8----6-----6--8--|------------------4--|
----9-------------6----|--8----8-------6--------|-------------6-------|
---------5--3--3-------|--7----7----3-----3--5--|--------5---------1--|
----6-------------3----|--6----6-------3--------|-------------3-------|
-----------------------|------------------------|--------3------------|
-----------------------|------------------------|---------------------|


  Fm7         Bb                                   Db7M                 
-------------------------|-------------------8--|----------------------|
--1-----1--------3-------|--8----8------8-------|------6---------------|
--1-----1--------3----5--|-------------------5--|---------5------------|
-----1--1--------3-------|--5----5------5-------|------3-----6----8----|
-----------3--1-------3--|----------------------|---------3------------|
-------------------------|----------------------|------------4----6----|


  Bbm7                      Db7M       C             Fm          Bb       
-------------8--11----8--|------------------------|----------------------|
-------6--9--------------|------9-----------------|--8--6--4--6----------|
----6--------5--8-----5--|---------10--8----5--8--|----------------------|
-------3--6--------------|------6-----------------|--5--3--1--3----------|
----4--------------------|---------8---6----3--6--|----------------------|
-------------------------|------------------------|----------------------|


  Fm           Bb              Fm          Bb       
----------------------------|----------------------|
----------------------------|--8--6--4--6----------|
----5-5-5--5-5-5--5-5-5--8--|----------------------|
----------------------------|--5--3--1--3----------|
----3-3-3--3-3-3--3-3-3--6--|----------------------|
----------------------------|----------------------|


  Bb9                      Db7M                  Bbm7   D9+    Db7   
--8------8--------------|---------------------|---------------------|
---------6----11--9--6--|--------6------------|--6------6------6----|
--5------7--------------|--------5----6----8--|--6------5------4----|
---------6----8---6--3--|--------6------------|--6------4------3----|
------------------------|--------4----4----6--|---------5------4----|
------------------------|---------------------|--6------------------|


                          Fm7        Bb            Fm7        Bb          
-----------------------|------------------------|------------------------|
--------------8-----6--|-------1--------3----1--|-------1--------3-------|
------5----8-----8-----|-------1--------3----1--|-------1--------3-------|
--------------5-----3--|----1-----------3-------|----1-----------3-------|
------3----6-----6-----|----------3--1----------|----------3--1-------3--|
-----------------------|------------------------|------------------------|


  Fm7         Bb            Fm           Bb           
-------------------------|------------------------8--|
--1-----1--------3-------|------------------6--9-----|
--1-----1--------3-------|----5-5-5--5-5-5--------5--|
-----1-----------3-------|------------------3--6-----|
-----------3--1-------3--|----3-3-3--3-3-3-----------|
-------------------------|---------------------------|


  Bb9                          D7M                   
--10--11--8-------------11--|--8--------------------|
-------------9--8--6--------|-------9--6------------|
--7---8---5-------------8---|--5------------6--5----|
-------------6--5--3--------|-------6--3------------|
----------------------------|---------------4--3----|
----------------------------|-----------------------|


  Bbm7                       Db7M        C7           
--11--8-------------9--6--|-----6--------------------|
-----------9--6-----------|--8-----6--4--5-----------|
--8---5----------6--6--3--|-----3-----------6--5-----|
-----------6--3-----------|--5-----3--1--2--------4--|
-----------------4--------|-----------------4--3-----|
--------------------------|-----------------------2--|


  Fm         Bb               Fm                Bb                 
----------------8--10--11--|--13/---15----11----13----10----------|
----------6--9-------------|--------------------------------11----|
-------5--------5--7---8---|--10/---12----8-----10----7-----------|
--3-------3--6-------------|--------------------------------8-----|
-------3-------------------|--------------------------------------|
--1------------------------|--------------------------------------|


  Fm         Bb            Fm        Bb            Bb13                 
------------------------|--------------8--8--8--|--8----8----8----8----|
--8---------------------|-----------------------|----------------------|
-------7--5--7----5-----|--------------5--5--5--|--5----5----5----5----|
--5------------------6--|--5----3---------------|----------------------|
-------5--3--5----3-----|-----------------------|----------------------|
---------------------4--|--3----1---------------|----------------------|


                                                  
--8----8----8----8----|--7/-8--8--8--7/-8--8--8--|
----------------------|--------------------------|
--5----5----5----5----|--4/-5--5--5--4/-5--5--5--|
----------------------|--------------------------|
----------------------|--------------------------|
----------------------|--------------------------|


                                                      
--7/-8--8--8--7/-8--8--8--|--8--7--7--6--6--5--5--4--|
--------------------------|--------------------------|
--4/-5--5--5--4/-5--5--5--|--5--4--4--3--3--2--2--1--|
--------------------------|--------------------------|
--------------------------|--------------------------|
--------------------------|--------------------------|


                                                     
--3----------8--11--9-----|--8-----6----------------|
-------6--9------------9--|-----8-----8----------6/-|
--0----------5--8---6-----|--5-----3-----7----5-----|
-------3--6------------6--|-----5-----5----------3/-|
--------------------------|--------------5----3-----|
--------------------------|-------------------------|


              C7            Fm                    Db7M                  
-----9--8----------------|--8----13------------|--8--------------------|
--5--------9--8--6--5----|---------------------|-------9--6------------|
-----6--5----------------|--5----10------------|--5----------5----3----|
--2--------6--5--3--2----|---------------------|-------6--3------------|
-------------------------|---------------------|-------------3----1----|
-------------------------|---------------------|-----------------------|


  Bbm7                     Db7M        C7           
--8----13------11----7--|--6--4-----7--6--4-----4--|
------------------------|--------6-----------6-----|
--5----10------8-----4--|--3--1-----4--3--1-----1--|
------------------------|--------3-----------3-----|
------------------------|--------------------------|
------------------------|--------------------------|


  Fm7         Bb           Fm           Bb            
--6--4--6-----4---------|------------------4-4-4-----|
-----------6-------6----|-----------6-6-6---------6--|
--3--1--3-----1---------|----5-5-5---------1-1-1-----|
-----------3-------3----|-----------3-3-3---------3--|
------------------------|----3-3-3-------------------|
------------------------|----------------------------|


  Fm          Bb           Fm           Bb            
--6--4--6-----4---------|------------------4-4-4--9--|
-----------6-------6----|-----------6-6-6---------9--|
--3--1--3-----1---------|----5-5-5---------1-1-1-----|
-----------3-------3----|-----------3-3-3------------|
------------------------|----3-3-3-------------------|
------------------------|----------------------------|


  Bb13 A13Bb13           Ab6  G6 Ab6            Bbm9 Am9Bbm9         
--8----7--8--------6--|--8----7--8--------7--|--8----7--8--------6--|
--8----7--8-----------|--6----5--6-----------|--6----5--6-----------|
--7----6--7-----------|--8----7--8-----------|--6----5--6-----------|
--6----5--6-----------|--6----5--6-----------|--6----5--6-----------|
----------------------|----------------------|----------------------|
----------------------|----------------------|----------------------|


  G7sus4  C7/5+G7 Bbsus4  Fm        Bb13        Fm      Bb13 Fm       
--8----7--8----7--6----|-------1----8--------|-----1----8----1----1--|
--6----8--9----6--4----|--1----1----8--------|--1--1----8----1----1--|
--7-------9----7--6----|--1----1----7--------|--1--1----7----1----1--|
--5-------8------------|--3---------6--------|--3-------6------------|
-----------------------|---------------------|-----------------------|
-----------------------|---------------------|-----------------------|


  Fm        Bb13   Fm            Bb13 B13        Bb13 A13Bb13         
-------1----8---------|-----1----8----9-------|--8----7--8--------6--|
--1----1----8------1--|--1--1----8----9----6--|--8----7--8-----------|
--1----1----7------1--|--1--1----7----8-------|--7----6--7-----------|
--3---------6------3--|--3-------6----7-------|--6----5--6-----------|
----------------------|-----------------------|----------------------|
----------------------|-----------------------|----------------------|


  Ab6  G6 Ab6            Bbm9 Am9Bbm9 Fm         Gdim                 
--8----7--8--------7--|--8----7--8----1--1/---|--9/---6/---3---------|
--6----5--6-----------|--6----5--6----1--1/---|--8/---5/---2----5/---|
--8----7--8-----------|--6----5--6----1--1/---|--9/---6/---3----6/---|
--6----5--6-----------|--6----5--6------------|--8/---5/---2----5/---|
----------------------|-----------------------|----------------------|
----------------------|-----------------------|----------------------|


  Fm       Ab6           Fm7   Gm7Ab6    Fm7      Gm7Ab6    Fm7Gm7G6 Ab6 
-----------8----------|--4--4--6--8------4--4--|--6--8------4--6--7--8--|
--------6--6----------|--4--4--6--6------4--4--|--6--6------4--6--5--6--|
--5--5--5--8----------|--5--5--7--8------5--5--|--7--8------5--7--7--8--|
--6--6--6--6----------|--3--3--5--6------3--3--|--5--6------3--5--5--6--|
----------------------|------------------------|------------------------|
----------------------|------------------------|------------------------|


      Fm7Gm7G6 Ab6  Fm7      Fm7                  
------4--6--7--8----13--|----13------------------|
------4--6--5--6----x---|----x-------13----------|
------5--7--7--8----13--|----13------13----13----|
------3--5--5--6----13--|----13------13----13----|
--------------------15--|----15------15----15----|
--------------------13--|----13------13----13----|


  Fm7M9                 Fm7              Ab6  Fm7   
-------------------8----13--|----13------8----4----|
------8-----6--8---8----x---|----x-------6----4----|
------9-----7--9---9----13--|----13------8----5----|
--10--10-------10-------13--|----13------6----3----|
--11--11-------11-------15--|----15----------------|
------------------------13--|----13----------------|


  Fm7M9                 Fm7              Ab6  Fm7   
-------------------8----13--|----13------8----4----|
------8-----6--8---8----x---|----x-------6----4----|
------9-----7--9---9----13--|----13------8----5----|
--10--10-------10-------13--|----13------6----3----|
--11--11-------11-------15--|----15----------------|
------------------------13--|----13----------------|


  Fm7M9                  Ab      Gm7Fm7    E EbDm
-------------------8--6--4--|----6--4------3--2--1--|
------8-----6--8---8--4--4--|----6--4------5--4--3--|
------9-----7--9---9-----5--|----7--5------3--2--1--|
--10--10-------10-----------|----5--3---------------|
--11--11-------11-----------|-----------------------|
----------------------------|-----------------------|


  Db Eb7EbE EbEb7Ebm7/  Fm              Gm7GbmAb/F
--0----3--5--6--8--9--11--|--13--------------6--5--4--|
--2----2--4--5--7--8--12--|--13----13--11----6--5--4--|
--0----3--5--6--8--8--11--|--13----12--10----7--6--5--|
-------1--4--5--7--9--11--|---------------------------|
--------------------------|---------------------------|
--------------------------|---------------------------|


    Fm7                    Bbm9     Bbm7            BbEb7   DbC9+    C9- 
----13----8-----4----1--|--8--4--4--6----8-------|--9--6--3--0------------|
----13----9-----4----1--|--6--6--6--6----6----8--|--8--4--2--2--4------2--|
----13----10----5----1--|--6--------6----6-------|--9--6--3--0--3------3--|
----------------3-------|--6---------------------|--8-----1-----2------2--|
------------------------|------------------------|--------------x------x--|
------------------------|------------------------|------------------------|


  Fm        Ab6                                                         
-------1----8------8--|--8----8--8----8--8----|--8--8----8--8----8--8--|
--1----1----6------6--|--6----6--6----6--6----|--6--6----6--6----6--6--|
--1----1----8------8--|--8----8--8----8--8----|--8--8----8--8----8--8--|
--3---------6------6--|--6----6--6----6--6----|--6--6----6--6----6--6--|
----------------------|-----------------------|------------------------|
----------------------|-----------------------|------------------------|


                         Bb7                                                
----8--8----8--8------|-----------------6--|--8--10--11--13--15--13--15----|
----6--6----6--6------|--------------6-----|-------------------------------|
----8--8----8--8------|-----------------3--|--5--7---8---10--12--10--12----|
----6--6----6--6------|--------------3-----|-------------------------------|
----------------------|--------------------|-------------------------------|
----------------------|--------------------|-------------------------------|


                                                                          
----------13----10----6----|--8----4--6-----------|-------------------8--|
---------------------------|---------------6------|-------------6--9-----|
----------10----7-----3----|--5----1--3-----------|----------5--------5--|
---------------------------|---------------3------|-------------3--6-----|
---------------------------|----------------------|----------3-----------|
---------------------------|----------------------|----------------------|


                                                C7/9+               
--6----8---------------|---------------6--4--|---------------------|
----------9----9--6----|------------6--------|-------------6----9--|
--3----5---------------|---------------3--1--|--------5------------|
----------6----6--3----|------------3--------|-------------3----6--|
-----------------------|---------------------|--------3------------|
-----------------------|---------------------|---------------------|


    Bb9                      Db7M                  Bbm7   D9+    Db7   
|---8------8--------------|---------------------|---------------------|
|----------6----11--9--6--|--------6------------|--6------6------6----|
|*--5------7--------------|--------5----6----8--|--6------5------4----|
|*---------6----8---6--3--|--------6------------|--6------4------3----|
|-------------------------|--------4----4----6--|---------5------4----|
|-------------------------|---------------------|--6------------------|


                          Fm7        Bb            Fm7        Bb          
-----------------------|------------------------|------------------------|
--------------8-----6--|-------1--------3----1--|-------1--------3-------|
------5----8-----8-----|-------1--------3----1--|-------1--------3-------|
--------------5-----3--|----1-----------3-------|----1-----------3-------|
------3----6-----6-----|----------3--1----------|----------3--1-------3--|
-----------------------|------------------------|------------------------|


  Fm7         Bb            Fm7                  4x
-------------------------|-----------------------||
--1-----1--------3-------|--1-----------6----9---||
--1-----1--------3-------|--1------5------------*||
-----1-----------3-------|--1-----------3----6--*||
-----------3--1-------3--|---------3-------------||
-------------------------|-----------------------||





Comments


Popular Wes Montgomery tabs & chords
Far Wes Chords
Four On Six Chords
Besame Mucho Intro Tabs
Bumpin Tabs
Bumpin 1 Tabs
Far Wes Tabs
Goin On To Detroit Tabs
Movin Wes Part 1 Tabs
West Coast Blues Tabs
Far Wes Ukulele


Song lyrics



↑ Back to top | Tablatures and chords are parodies/interpretations of the original songs. You may use it for private study, scholarship, research or language learning purposes only
© 2014 AZChords.com Contact us | Privacy policy | DMCA | Add/correct tabs | Request tabs | Top 50 tabs