» » »

Wes Montgomery, Far Wes Tabs (ver.1)

Artists:  A B C D E F G H I J K L M N O P Q R S T U V W X Y Z # 

Far Wes Tabs (ver.1)

Wes Montgomery Tabs
 Rating:
4.2/5 (5 votes)
Far Wes lessons Tabs too difficult? Try these video lessons and learn fast
1
                Wes Montgomery - Far Wes                                   
(as being played on 'Wes Montgomery, BEGINNINGS')

Lead Guitar
                       Ab13 Db7M                    B13  E7M 
E||-------------------------4--|-------------------------7--|
B||--------------------6----6--|--------------------9----9--|
G||--------------------5----5--|--------------------8----8--|
D||--------------------4----6--|--------------------7----9--|
A||-------------------------4--|-------------------------7--|
E||--------------------4-------|--------------------7-------|


                    A13  D7M                           Ab7 
-------------------------5--|--------------------------4--|
--------------------7----7--|--------------------------4--|
--------------------6----6--|--------------------------5--|
--------------------5----7--|--------------------------4--|
-------------------------5--|------------------5--6-------|
--------------------5-------|-----------------------------|


                       Db7M                          
------------------||--------------------------------|
------------------||--------------------------------|
------------------||*-------------------------------|
------------------||*--6----3--4----6------------6--|
------------------||--------------------------------|
------------------||--------------------------------|


  Gbm7            B7                 E7M                           
---------------4--3---------------|-------------------------------|
----------5------------4----------|-------------------------------|
-------6------------------5-------|--4------------4---------------|
--7----------------------------6--|-------6--7-----------------4--|
----------------------------------|-------------------------------|
----------------------------------|-------------------------------|


  Em7             A7                 D7M             Bm            
---------------2--1---------------|-------------------------------|
----------3------------2----------|-------------------------------|
-------4------------------3-------|--2------------2------------2--|
--5----------------------------4--|-------4--5--------------------|
----------------------------------|-------------------------------|
----------------------------------|-------------------------------|


  Ebm7            Ab7               Db7M            E7M          
---------------------------------|------------------------------|
----------------------2--1----4--|------------------------------|
--3------------3-----------------|--1------------1--------------|
-------4--6----------------------|-------3--4-------------------|
---------------------------------|------------------------------|
---------------------------------|------------------------------|


  A7                                      Db7M9                      
--------------4-----------------------||----------------------------|
--------5--6-----5h6p5----------------||--4/-----------1/-----------|
--------------------------5----------*||----------------------------|
-----------------------------7----4--*||----------------------------|
--------------------------------------||----------------------------|
--------------------------------------||----------------------------|


                             
----------------------------|
--4/-----------1------------|
----------------------------|
----------------------------|
----------------------------|
----------------------------|


  Dbm                     Dbm/C                    
--------------------------------------11--12--11--|
--------------------------11--12--14--------------|
------11----------11--13--------------------------|
--14------13--14----------------------------------|
--------------------------------------------------|
--------------------------------------------------|


  Dbm/B                   Dbm/Bb                   
--------------------------------------------------|
--12--14--12------12------------------------------|
--------------13------13--11--13--11------11------|
--------------------------------------14------14/-|
--------------------------------------------------|
--------------------------------------------------|


  A7M                                                             
-----------------------------------|-----------------------------|
-----------------------------------|-----------------------------|
-----------------------------------|-----------------------9--9--|
--11--------9--8--7----------6-----|-----------------------------|
-----------------------7--9-----7--|-----------------------------|
-----------------------------------|--9--------------------------|


  Gbm                                 B7                               
-----------------------------------|----------------------------------|
-----------------------9-----------|----------------9--------3--3--3--|
----9--9--9--9--9---------9--------|--9----9--------------------------|
-------------------------------11--|----------11----------------------|
-----------------------------------|----------------------------------|
-----------------------------------|----------------------------------|


  Em              A7                 Ebm               Ab7                
---------------2------------------|-----------4--------------------------|
----3--3--3-------3----3----------|--------------5-----------------------|
----------------------------------|-----3--6--------5--------------------|
--------------------------2----3--|--4-----------------6--4--6--4--2-----|
----------------------------------|-----------------------------------3--|
----------------------------------|--------------------------------------|


  Db7M                            Gbm7            B7               
-------------------------------|---------------4--3---------------|
-------------------------------|----------5------------4----------|
-------------------------------|-------6------------------5-------|
--6----3--4----6------------6--|--7----------------------------6--|
-------------------------------|----------------------------------|
-------------------------------|----------------------------------|


  E7M                             Em7             A7               
-------------------------------|---------------2--1---------------|
-------------------------------|----------3------------2----------|
--4------------4---------------|-------4------------------3-------|
-------6--7-----------------4--|--5----------------------------4--|
-------------------------------|----------------------------------|
-------------------------------|----------------------------------|


  D7M             Bm              Ebm7            Ab7             
-------------------------------|---------------------------------|
-------------------------------|----------------------2--1----2--|
--2------------2------------2--|--3------------3-----------------|
-------4--5--------------------|-------4--6----------------------|
-------------------------------|---------------------------------|
-------------------------------|---------------------------------|


  Bm9            A    E7     Ebm7                 A    Ab7/9+ Db7M
--------------------------------|--------------------------------|
-----------------------------4--|--------2-----------------------|
--------4--2--------------------|-----------2-----2----4------5--|
--------------4--2----4---------|--------------4-----------------|
--------------------------------|--------------------------------|
--------------------------------|--------------------------------|


                                           
--------------------------------------12--|
----------------------------------13------|
------------------------------13----------|
--------------14----------14--------------|
----------15------14--15------------------|
------------------------------------------|


                                           Db7M                            
----8-----------------------------------|---------------------------------|
-------9--------------------------------|---------------------------------|
----------10----------------------------|-------------------5----6--------|
--------------10------------------------|-------------3--6----------------|
------------------11/-9--7/-5--3-----3--|--6----3--4----------------------|
----------------------------------4-----|---------------------------------|


  Gbm7            B7                   E7M                               
------------------------------------|--2--------------------------------|
----------------------------------4-|-------4-------------------------3-|
------4--2--1-----------------1h4---|----------4--1--4------------0h4---|
---------------4--3----4------------|-----------------------------------|
------------------------------------|-----------------------------------|
------------------------------------|-----------------------------------|


  Em7              A7                  D7M              Bm            
--2---------------------2-----------|--------------------------------|
-------3-------------------2--------|--5-----------------------------|
----------4-----4--3----------3-----|-------6------------------------|
-------------5-------------------4--|----------7--4--7---------------|
------------------------------------|-----------------------------6--|
------------------------------------|--------------------------------|


  Ebm7              Ab7                  Fm7/5-           E9                
--------------6--9--8--4--5--6--------|--4----------------4----------------|
-----------7--------------------7-----|-------6----------------5--2--------|
--------6--------------------------6--|----------5-----3-------------4--2--|
-----8--------------------------------|-------------6----------------------|
--9-----------------------------------|------------------------------------|
--------------------------------------|------------------------------------|


  Ebm7            D9/5-            Db7M                           
--------------------------------|--------------------------------|
--------------------------------|-----------------2------4----2--|
--1-----------------------------|------1--3----1-----------------|
---------4--------2----1--------|--------------------------------|
------------4--0----------------|--------------------------------|
--------------------------------|--------------------------------|


  Gbm7            B7                   E7M                                
------------------------------------|--2----2----------------------------|
--5----5----2---------------------4-|------------4---------------------3-|
---------------2--1-----------1h4---|---------------4--------------0h4---|
-----------------------4------------|------------------4----2------------|
------------------------------------|------------------------------------|
------------------------------------|------------------------------------|


  Em7             A7                 D7M            Bm               
--2----2----------2----2----5--6--|--9--------7--5------------------|
------------3---------------------|-----------------7--5------------|
---------------4------------------|-----------------------7--6------|
----------------------------------|---------------------------------|
----------------------------------|---------------------------------|
----------------------------------|---------------------------------|


  Ebm7             Ab7                
----4--6-----4-----------------------|
----------7-----6--7--4--6-----4-----|
----------------------------6-----6--|
-------------------------------------|
-------------------------------------|
-------------------------------------|


  Db7M                    Ebm7                     
--------------------------------------------------|
--------------------------------------------------|
--5h6p5-------5h6p5-------5h6p5-------5h6p5-------|
-----------6-----------6-----------6-----------6--|
--------------------------------------------------|
--------------------------------------------------|


  Db7M                                    Dbm7         Dbm/C         
---------------------------------------|----------------------------|
---------------------------------------|--------5----------------5--|
--5h6p5-------5h6p5--------------------|----------------------------|
-----------6-----------6--8------------|----------------------------|
---------------------------------------|----------------------------|
---------------------------------------|----------------------------|


  Dbm7/B         Dbm/Bb            A7M                        
--------------4-----------------|----------------------------|
------2--5-------5----5--2------|--------5------------5------|
--------------------------------|----------------------------|
--------------------------------|----------------------------|
--------------------------------|----------------------------|
--------------------------------|----------------------------|


                                        
--9----10--9---------------------------|
----------------10---------------------|
--------------------9------------------|
-------------------------11------------|
-----------------------------12----11--|
---------------------------------------|


  Gbm                                          
-----------------9--11--12--9-----------------|
-------------10----------------10--9--10------|
----------9-------------------------------10--|
------11--------------------------------------|
--12------------------------------------------|
----------------------------------------------|


  B7                                    Em             A7             
-------------------------------------|----------2--------------------|
------9------------------------------|--------3----4-3-2-------------|
--11-----9--6------------------------|------4------------3-2-1-0-----|
---------------7-----6---------------|--2-5--------------------------|
------------------8-----8--9--4------|-----------------------------8-|
-------------------------------------|-------------------------------|


  Ebm             Ab7              Db7M                                 
------------------6--8/-11--9/8-|--------------------------------------|
----------6-----7---------------|---11-9-------------------------------|
--------6---7-8-----------------|--------10-8--------------------------|
----6-8-------------------------|-------------11-10----8-10------------|
--9-----------------------------|-------------------11------11-8----11-|
--------------------------------|--------------------------------------|


  Gbm7                      B7                     
--------------------------9-12-9-------------11-9-|
---------------9-------10--------10-------12------|
-------------9---10-11--------------11-12---------|
--9-------11--------------------------------------|
----11-12-----------------------------------------|
--------------------------------------------------|


  E7M                                       Em7          A7               
-----------------------------------------|-------7-6-5-4-3-2-1-----------|
--12-----10-9----------------------------|---------------------2---------|
-----8-9------8-11-10-9----------------7-|--6--------------------2-0-2-0-|
------------------------11-9-7-6---5-8---|-------------------------------|
---------------------------------6-------|-------------------------------|
-----------------------------------------|-------------------------------|


  D7M                  Bm                  Ebm7         Ab7              
--------------2-5-9-12-11--9------------|-----7-5---4-------------------|
------2-5-2-3----------------10---------|---------8---7-6-5-------------|
----2---------------------------11------|-------------------5-----------|
--4--------------------------------11---|---------------------7-6-4-6-4-|
----------------------------------------|-------------------------------|
----------------------------------------|-------------------------------|


  Db7M                              Ebm7           Ab7              
---------------4-8--8--8---6-4---|---------------------------------|
------1------6-----------------6-|--------------------5------------|
----1---3--5---------------------|--3--3--3--------------5---------|
--3------------------------------|-------------4-6-6---------7-6-5-|
---------------------------------|---------------------------------|
---------------------------------|---------------------------------|


(Brass & Piano Solos)            Db7M                          
|-----------------------------||-------------------------------|
|-----------------------------||-------------------------------|
|*---------------------------*||-------------------------------|
|*---------------------------*||--6----3--4----6------------6--|
|---8-------------------------||-------------------------------|
|-----------------------------||-------------------------------|


  Gbm7            B7                 E7M                           
---------------4--3---------------|-------------------------------|
----------5------------4----------|-------------------------------|
-------6------------------5-------|--4------------4---------------|
--7----------------------------6--|-------6--7-----------------4--|
----------------------------------|-------------------------------|
----------------------------------|-------------------------------|


  Em7             A7                 D7M             Bm            
---------------2--1---------------|-------------------------------|
----------3------------2----------|-------------------------------|
-------4------------------3-------|--2------------2------------2--|
--5----------------------------4--|-------4--5--------------------|
----------------------------------|-------------------------------|
----------------------------------|-------------------------------|


  Ebm7            Ab7         Bm9                  A7   E7     Ebm7
---------------------------------|--------------------------------|
----------------------2--1----2--|-----------------------------4--|
--3-------1----3-----------------|--------4--2--------------------|
-------4-------------------------|--------------4--2----4---------|
---------------------------------|--------------------------------|
---------------------------------|--------------------------------|


                 A    Ab7/9+ D7M/                                       
--------------------------------|------------------|------------------||
--------2-----------------------|------------------|------------------||
-----------2-----1----4------5--|------------------|------------------||
--------------4-----------------|------------------|------------------||
--------------------------------|------------------|------------------||
--------------------------------|------------------|------------------||
            
Submit corrections

comments powered by Disqus
↑ Back to top | Wes Montgomery Tabs for Far Wes. Lyrics for acoustic guitar and electric guitar. 1 Tablatures and chords are parodies/interpretations of the original songs. You may use it for private study, scholarship, research or language learning purposes only