>
 >
Con Alma

Con Alma Guitar Tabs

Wes Montgomery - Con Alma chords, tabs, tablatures, lyrics

Guitar lessons | Add/correct | Request | Top 50 tabs Artists:  A B C D E F G H I J K L M N O P Q R S T U V W X Y Z 0-9

Con Alma Guitar Tabs – Wes Montgomery

CD, Sheet music, Poster

Do you like Con Alma? Share with your friends now
Tabs
Band: Wes Montgomery



Legend:

t trill
h hammer on
p pull off
b bend
v Vibrato
/slide up neck
\slide down neck


Intro

e---------------------------------------------------------------------|
B--9---9-9---9-9---9-9--9-9-11-12-11-9-8--6-8-------------------------|
G---------------------------------------------------------------------|
D--6---6-6---6-6---6-6--6-6-8--9--8--6-5--3-5-------------------------|
A---------------------------------------------------------------------|
E---------------------------------------------------------------------|

e---------------------------------------------------------------------|
B--6---6-6---6-6---6-6--6-6-8-9-8-6--5--------------------------------|
G---------------------------------------------------------------------|
D--3---3-3---3-3---3-3--3-3-5-6-5-3--2--------------------------------|
A---------------------------------------------------------------------|
E---------------------------------------------------------------------|

e---------------------------------------------------------------------|
B--9---9-9---9-9---9-9--9-9-11-12-11-9-8--6-8-------------------------|
G---------------------------------------------------------------------|
D--6---6-6---6-6---6-6--6-6-8--9--8--6-5--3-5-------------------------|
A---------------------------------------------------------------------|
E---------------------------------------------------------------------|
                                          Bridge
e---------------------------------------|-----------------------------|
B--6---6-6---6-6---6-6--6-6-8-9-8-6--5--|---2/4-6-7-6-4---4-----------|
G---------------------------------------|---------------6-------------|
D--3---3-3---3-3---3-3--3-3-5-6-5-3--2--|-----------------------------|
A---------------------------------------|-----------------------------|
E---------------------------------------|-----------------------------|

e-------------------------------------------4-7-6-------13/15---------|
B--2/4-5/7-9-10-9-7---7----7-9-10-11b~----5---------------------------|
G-------------------9-------------------------------------------9/11--|
D---------------------------------------------------------------------|
A---------------------------------------------------------------------|
E---------------------------------------------------------------------|

Main Theme 0:52

e---------------------------------------------------------------------|
B--9---9-9---9-9---9-9--9-9-11-12-11-9-8--6-8-------------------------|
G---------------------------------------------------------------------|
D--6---6-6---6-6---6-6--6-6-8--9--8--6-5--3-5-------------------------|
A---------------------------------------------------------------------|
E---------------------------------------------------------------------|

e---------------------------------------------------------------------|
B--6---6-6---6-6---6-6--6-6-8-9-8-6--5--------------------------------|
G---------------------------------------------------------------------|
D--3---3-3---3-3---3-3--3-3-5-6-5-3--2--------------------------------|
A---------------------------------------------------------------------|
E---------------------------------------------------------------------|

Solo 1:07

e---------------------------------8--11-10-15-13-12-11--9-8-7-6-6/8---|
B----4------------4-5---------5-8-------------------------------------|
G--4---4------4-6-----6-----4-----------------------------------------|
D---------------------------------------------------------------------|
A---------------------------------------------------------------------|
E---------------------------------------------------------------------|

e---------------------------------------------------------------------|
B--8-6-4/6----------------11t12---------------------------------------|
G-----------6-4-3-3---------------10-9-12-----------------------------|
D-----------------------------------------------------9-12------------|
A---------------------------------------------10-12-------------------|
E---------------------------------------------------------------------|

e---------------------------------------------------------------------|
B--------------------------------------------------4-6-8--------------|
G--13-------2-4/5---2-4/5--2-4/5--2-4/5------3/4-5--------------------|
D---------------------------------------------------------------------|
A---------------------------------------------------------------------|
E---------------------------------------------------------------------|

e---------------------------------------------------------------------|
B--8h9p8-11--6h7p6-9--7p6------------------6-4-6--7-6-4-3-------------|
G-----------------------------------5-6-------------------------------|
D-----------------------------5h6h7-----------------------------------|
A---------------------------------------------------------------------|
E---------------------------------------------------------------------|

e--------------6------------5--8--12-11-10----------------------------|
B----------4-5-------5-/7-8-----------------12-11-10-8/10---7-5-4/6---|
G------4-6------------------------------------------------------------|
D--5-6----------------------------------------------------------------|
A---------------------------------------------------------------------|
E---------------------------------------------------------------------|

e---------------------------------------------------------------------|
B--4-3-2-1/3---4/6--7-6-4-1--4/6--7-6-4-1--4/6-7-6-4-1--6-7-6-4-1---1-|
G---------------------------------------------------------------------|
D--------------1/3-----------1/3-----------1/3------------------------|
A---------------------------------------------------------------------|
E---------------------------------------------------------------------|

e-------------12--9-11--7-9-11-9-7------------------------------------|
B-------11-12----------------------10-9-7-----------------------------|
G-----9-----------------------------------10-9-6-8--------------------|
D--10-----------------------------------------------------------------|
A---------------------------------------------------------------------|
E---------------------------------------------------------------------|

e--------------------------------------10/12--------------------------|
B--9-8--------------------7-6----------------10/12--------------------|
G------10-9-8-----------------7-5------------------10/12--------------|
D-------------10-9-7-6-7----------7----------------------10/12--------|
A--------------------------------------------------------------10/12--|
E---------------------------------------------------------------------|

e--------------------------------------------------------------13/15--|
B--------------------------------------------12--9----------12--------|
G-----------------------------------10-12-13------10--12-14-----------|
D---------------------------------------------------------------------|
A-------15/17-13/15-11/13-9/11-7/9------------------------------------|
E-10/12---------------------------------------------------------------|

e-13-11-10-11/13------------------------------------------------------|
B---------------9/11------------------------------16--16-14-12--------|
G--------------------11-9------------------/13-16--------------14-12--|
D-------------------------11-10-9-------------------------------------|
A---------------------------------10-9--------------------------------|
E---------------------------------------------------------------------|

e---------------------------------------------------------------------|
B-----------------------------------12-13-14----------------13/14-----|
G-----14--12--------------12-13-14-----------13-11-9------------------|
D--14--------14-----12-13----------------------------11---------------|
A---------------14----------------------------------------------------|
E---------------------------------------------------------------------|

e---------------------------------------------------------------------|
B--11----13-11--------------------------------------11-9--------------|
G-----11--------11/10-8-10-8----8------------8-7-10--------8-10-8-6---|
D----------------------------10---------8-10------------------------7-|
A---------------------------------------------------------------------|
E---------------------------------------------------------------------|

e---------------------------------------------------------------------|
B---------------------------------------------------------------------|
G--8/10-8----------------------------------------------------11/12--9-|
D---------11----8---8---8---8---8---8---8---8---7-7-------------------|
A---------------------------------------------------7-7-10------------|
E---------------------------------------------------------------------|

e---------------------------------------------------------13----------|
B-----16---------------------------------------16-------------16------|
G--16------16--12-13-14-13-\9----9-----9----------16--12---------16---|
D-----------------------------11-----11-------------------------------|
A---------------------------------------------------------------------|
E---------------------------------------------------------------------|

e------13-11---------11-----------------------------------------------|
B------------13-9-------13-9---------13----------11----------------11-|
G--12-------------11---------10-----------10--------------------10----|
D-----------------------------------------------------8------11-------|
A---------------------------------------------------------------------|
E---------------------------------------------------------------------|


e---------------------------------------------------------------------|
B---13-10----15-12--------------------12-12-12----12----16-12-16-12---|
G----------------------12-10-9-12-------------------------------------|
D---------------------------------------------------------------------|
A---------------------------------------------------------------------|
E---------------------------------------------------------------------|

e--------------------------------------------------13/15-15-13-10-----|
B-------------16-14-16-14------12-14--14-11-16-11---------------------|
G--11-14-13-----------------13----------------------------------------|
D---------------------------------------------------------------------|
A---------------------------------------------------------------------|
E---------------------------------------------------------------------|

e--11/13-11-8---------------------------------------------------------|
B--------------9---9-9---9---9--9---7--11---11-11---11---11---11------|
G---------------------------------------------------------------------|
D---------------------------------------------------------------------|
A---------------------------------------------------------------------|
E---------------------------------------------------------------------|

e-9/11----------------------------------------------------------------|
B------10-9-8--6/8-----8---8-8---8------------------------------------|
G-------------------8-------------------------------------------------|
D---------------------------------------------------------------------|
A---------------------------------------------------------------------|
E---------------------------------------------------------------------|

Bridge 2:38

e---------------------------------------------------------------------|
B--2/4-6-7-6-4---4--2/4---5/7--9-10-9--7---7----7--9-10---12-10/12\11-|
G--------------6-------------------------9----------------------------|
D---------------------------------------------------------------------|
A---------------------------------------------------------------------|
E---------------------------------------------------------------------|

e---------------------------------------------------------------11-10-|
B-10/12/11-10/12\11-10/12\11--------11-12--11--11---------12-11-------|
G------------------------------9-12--------------------9--------8--7--|
D---------------------------------------------------9-----9--8--------|
A------------------------------------------------------7--------------|
E---------------------------------------------------7-----------------|

Outro 2:53

e---------------------------------------------------------------------|
B--9---9-9---9-9---9-9--9-9-11-12-11-9-8--6-8-------------------------|
G---------------------------------------------------------------------|
D--6---6-6---6-6---6-6--6-6-8--9--8--6-5--3-5-------------------------|
A---------------------------------------------------------------------|
E---------------------------------------------------------------------|

e---------------------------------------------------------------------|
B--6---6-6---6-6---6-6--6-6-8-9-8-6--5--------------------------------|
G---------------------------------------------------------------------|
D--3---3-3---3-3---3-3--3-3-5-6-5-3--2--------------------------------|
A---------------------------------------------------------------------|
E---------------------------------------------------------------------|

e---------------------------------------------------------------------|
B---------------------------------------------------------------------|
G--------------------------------------------16-----------------------|
D--9-10--11-12--12-13--14-15--16-17--17-18----------------------------|
A---------------------------------------------------------------------|
E---------------------------------------------------------------------|


My second Jazz tab comments or corrections appreciated contact me
please rate.





Comments


Popular Wes Montgomery tabs & chords
Angel Tabs
Boss City Tabs
Boss City 1 Tabs
Bumpin Tabs
Bumpin 1 Tabs
Four On Six Tabs
Movin Wes Part 1 Tabs
Road Song Tabs
Serene Tabs
Four On Six Ukulele


Song lyrics



↑ Back to top | Tablatures and chords are parodies/interpretations of the original songs. You may use it for private study, scholarship, research or language learning purposes only
© 2014 AZChords.com Contact us | Privacy policy | DMCA | Add/correct tabs | Request tabs | Top 50 tabs