>
 >
Angel

Angel Guitar Tabs

Wes Montgomery - Angel chords, tabs, tablatures, lyrics

Guitar lessons | Add/correct | Request | Top 50 tabs Artists:  A B C D E F G H I J K L M N O P Q R S T U V W X Y Z 0-9

Angel Guitar Tabs – Wes Montgomery

CD, Sheet music, Poster

Do you like Angel? Share with your friends now
Tabs
Lead Guitar



                             Em           A7            
E||---------------------||-----------------------------|
B||---------------------||---12----10--8--10-----------|
G||--------------9--12--||*---------------------12--9--|
D||---------------------||*--9-----7---5--7------------|
A||--------------7--10--||----------------------10--7--|
E||---------------------||-----------------------------|


  Em          A7             Bm7/5-  A7              Bm7/5-  A7              
--------------------------|-----------------------|-------------------------|
--------------------------|-----------------------|-------------------------|
--12----9--7--9-----------|-----------------------|------------------9--12--|
-------------------12--9--|--12------11--------9--|--12------11-------------|
--10----7--5--7-----------|-----------------------|------------------7--10--|
-------------------10--7--|--10------9---------7--|--10------9--------------|


  Am7          G9              C7M         Bm7           
----------------------------|---------------------------|
--12----10--8--10-----------|---------------------------|
---------------------12--9--|--12----9------------------|
--9-----7---5--7------------|-----------9--12----9--12--|
---------------------10--7--|--10----7------------------|
----------------------------|-----------7--10----7--10--|


  Em     A7               Em     A7                 Em     A7               
-----------------------|------------------------||---------------------10--|
-----------------------|------------------------||-----------------12------|
--9------9-------------|--9------9------9--12--*||--9------9----9------7---|
----------------9--12--|-----------------------*||-----------------9-------|
--7------7-------------|--7------7------7--10---||--7------7----7----------|
----------------7--10--|------------------------||-------------------------|


Em                Dm9        G13     C7M                            Bb7/5Am7 
12--10------10---------3--|-------3---------------|-------------------------|
--------12--------5-------|--5-------5---------8--|--10-----8-------5----5--|
9---7-------7-----5-------|--4-------4------9-----|------9-------9--7----5--|
--------9---------3-------|--3----5--5---------5--|--7------5-------6----5--|
------------------5-------|----------3------7-----|------7-------7----------|
--------------------------|-----------------------|-----------------6-------|


    B7sus4  Em                              Dm9        G13     C7M           
-----------------7--10--|--12--10--7--10---------3--|-------3---------------|
------------5-----------|-------------------5-------|--5-------5---------8--|
----9----7--4----4--7---|--9---7---4--7-----5-------|--4-------4------9-----|
----7-------5-----------|-------------------3-------|--3----5--5---------5--|
----9-------------------|-------------------5-------|----------3------7-----|
----7-------------------|---------------------------|-----------------------|


                 Bb7/5Am7     C9                    
-------------------------|-------------7-----------|
--10-----8-------5----5--|----8----10--8-----------|
------9-------9--7----5--|----7--------8----9--12--|
--7------5-------6----5--|----8--------------------|
------7-------7----------|----7-------------7--10--|
-----------------6-------|-------------------------|


Em          A7              Em          A7             Bm7/5-  A7            
-------------------------|--------------------------|-----------------------|
12---10--8--10-----------|--------------------------|-----------------------|
------------------12--9--|--12----9--7--9-----------|-----------------------|
9----7---5--7------------|-------------------12--9--|--12------11--------9--|
------------------10--7--|--10----7--5--7-----------|-----------------------|
-------------------------|-------------------10--7--|--10------9---------7--|


  Bm7/5-  A7                Am7          G9            
-------------------------|----------------------------|
-------------------------|--12----10--8--10-----------|
------------------9--12--|---------------------12--9--|
--12------11-------------|--9-----7---5--7------------|
------------------7--10--|---------------------10--7--|
--10------9--------------|----------------------------|


  C7M         Bm7             Em     A7               Em     A7            
---------------------------|-----------------------|----------------------|
---------------------------|-----------------------|----------------------|
--12----9------------------|--9------9-------------|--9------9----9----9--|
-----------9--12----9--12--|----------------9--12--|----------------------|
--10----7------------------|--7------7-------------|--7------7------------|
-----------7--10----7--10--|----------------7--10--|----------------------|


  Em         A7          Em          A7               
----------------------|------------------12----------|
--8-------------------|--------------12--------10/12/|
-----9--9----9--------|-------9--12------------------|
----------------------|----9-------------------------|
----------------------|------------------------------|
----------------------|------------------------------|


  Em            A7               Em           A7       
------------------------------|-----------------------|
--10-----10-----8--10p8-------|-----------------------|
------9------9----------9--7--|-----------------------|
------------------------------|--9p7------------------|
------------------------------|------10--7------------|
------------------------------|-----------------------|


  Am        G                  C              B7             
------12----12--10----------|-------------------------------|
----------------------12p10-|-------------------------------|
----------------------------|--12----9p-7/-5----------------|
----------------------------|-----------------9----7h-9--5--|
----------------------------|-------------------------------|
----------------------------|-------------------------------|


  Em       A7         Em         A7             Em          A7         
-------------------|----------3--6/-7--6--5--|--3-----3--0--7----0----|
-------------------|-------5-----4/-5--4-----|-----5--------5---------|
-------------------|----4--------------------|------------------------|
--5----------------|-------------------------|------------------------|
-------------------|-------------------------|------------------------|
-------------------|-------------------------|------------------------|


                                                         
------12------10--------------|-------------------------|
------------------12--10------|--10---------------------|
--------------------------12--|------12-12---9----------|
------------------------------|-------------------------|
------------------------------|-------------------------|
------------------------------|-------------------------|


 Em              A7                   Am7               G9                   
-------------12--10----------------|----------------------------------------|
---------12----------12--10-----10/|--12--10/12--10/12--10/12--10/12--10/12-|
----9-12---------------------12----|----------------------------------------|
--9--------------------------------|----------------------------------------|
-----------------------------------|----------------------------------------|
-----------------------------------|----------------------------------------|


  C                B7              Em           A7          
--------------------------------|---------------3--x-7--5--|
---10/12------------------------|------------5-------------|
----------11/12--7/9------------|---------4----------------|
----------------------7/9--4/5--|--2----5------------------|
--------------------------------|--------------------------|
--------------------------------|--------------------------|


  Em            A7            Dm9           G7                  
--3--0---------------------|--0--------------------------------|
-------------------------8-|-----------------------------------|
--------4p2p0--------7/9---|------------9-8-7------------------|
--------------2------------|----------7-------9----------------|
---------------------------|------7-8-----------10-8-10-8-7-10-|
---------------------------|-----------------------------------|


  C7M              Bb13               Am7          C/G              
-------------7-8--------6----------|---------------------------8---|
-----------8--------7/8---8p7p6-8--|-------------------------8-----|
--7------9-------------------------|---------9----------7-10-------|
----9-10---------------------------|---9-10------7-9-10------------|
-----------------------------------|-------------------------------|
-----------------------------------|-------------------------------|


  F#m        B7       Em                 
--7-8-7---------------------------------|
--------10-8-8--------------------------|
---------------8/7----------------------|
-------------------10-9-7---------------|
--------------------------10-9-7--------|
---------------------------------10-8-7-|


 Dm9              G7                       C7M                 Bb13          
---------------------------12--10-------|-------------------------------6---|
---------------------10-13--------12-10-|-----------------------------------|
-------------9----10--------------------|--12-9-------------------5-8-7-----|
--------7-10---7------------------------|-------12-10-9---------6-----------|
----7-8---------------------------------|---------------12-10---------------|
-10-------------------------------------|-----------------------------------|


  Am7           G9             F#m          B7           
-------------7---5-5--------|---------------------------|
---------5-8---------8--7---|---------------------------|
---4/5-7--------------------|---6-5----4----2----9--12--|
----------------------------|-------4-----4-------------|
----------------------------|--------------------7--10--|
----------------------------|---------------------------|


Em          A7              Em          A7             Bm7/5-  A7            
-------------------------|--------------------------|-----------------------|
12---10--8--10-----------|--------------------------|-----------------------|
------------------12--9--|--12----9--7--9-----------|-----------------------|
9----7---5--7------------|-------------------12--9--|--12------11--------9--|
------------------10--7--|--10----7--5--7-----------|-----------------------|
-------------------------|-------------------10--7--|--10------9---------7--|


  Bm7/5-  A7                Am7          G9            
-------------------------|----------------------------|
-------------------------|--12----10--8--10-----------|
------------------9--12--|---------------------12--9--|
--12------11-------------|--9-----7---5--7------------|
------------------7--10--|---------------------10--7--|
--10------9--------------|----------------------------|


  C7M         Bm7             Em     A7               Em     A7            
---------------------------|-----------------------|--------------12------|
---------------------------|-----------------------|----------------------|
--12----9------------------|--9------9-------------|--9------9----9-------|
-----------9--12----9--12--|----------------9--12--|----------------------|
--10----7------------------|--7------7-------------|--7------7------------|
-----------7--10----7--10--|----------------7--10--|----------------------|


  Em             A7               Em     A7              
----10-------------------------|------------------------|
--------12/10-8--10-----8--10--|--------------12--12----|
----7----------------9---------|--9------9--------------|
--------9/-7--5--7------5--7---|--------------9---9-----|
---------------------7---------|--7------7--------------|
-------------------------------|------------------------|


  Em            A7               Em          A7          
----10/-12--10----------------|-------------------------|
-----------------10/8--10-----|---10/8------------------|
----7/--9---7--------------9--|---------9----9--9--9----|
-----------------7/-5--7------|---7/-5------------------|
---------------------------7--|---------7----7--7--7----|
------------------------------|-------------------------|


  Em      A7                 Em              A7            
----12----12----12----15--|--15--12--12--10--10--7--7--5--|
--------------------------|-------------------------------|
----9-----9-----9-----12--|--12--9---9---7---7---4--4--2--|
--------------------------|-------------------------------|
--------------------------|-------------------------------|
--------------------------|-------------------------------|


  Em              A7                                       
--7--10--------------------------|--------------------12--|
---------12/10-8--10-----8-------|------------------------|
--4--7----------------9----------|--9----9--9----9----9---|
---------9/-7--5--7------5--9/12-|------------------------|
----------------------7----------|--7----7--7----7--------|
----------------------------7/10-|------------------------|


                                                            4x
|-------------------------12--|------------------------12---||
|--------10-----8--10---------|-------10-----8--10----------||
|*----9------7---------9--9---|----9------7---------9--9---*||
|*-------7------5--7----------|-------7------5--7----------*||
|-----7------5---------7------|----7------5---------7-------||
|-----------------------------|-----------------------------||





Comments


Popular Wes Montgomery tabs & chords
Besame Mucho Intro Tabs
Boss City 1 Tabs
Bumpin Tabs
Far Wes Tabs
Four On Six Tabs
Mr Walker Tabs
Round Midnight Tabs
Sues Waltz Tabs
West Coast Blues Tabs
West Coast Blues 1 Tabs


Song lyrics



↑ Back to top | Tablatures and chords are parodies/interpretations of the original songs. You may use it for private study, scholarship, research or language learning purposes only
© 2014 AZChords.com Contact us | Privacy policy | DMCA | Add/correct tabs | Request tabs | Top 50 tabs