» » »

Weezer, Zep Song Tabs (ver.1)

Artists:  A B C D E F G H I J K L M N O P Q R S T U V W X Y Z # 

Zep Song Tabs (ver.1)

Weezer Tabs
Rating:
0/5 (0 votes)
Zep Song lessons Tabs too difficult? Try these video lessons and learn fast
                -------------------------------------------------------------------------------
-------------------------------------------------------------------------------


Tuning: Guitar 1 - Standard
        Guitar 2 - Standard

Key
/  slide up
\  slide down
h  hammer-on
p  pull-off
~  sustain
*  harmonic

This song is unreleased but has been played live. 

Intro
e|-----------------------------------------------------------------------------------------|
B|-----------------------------------------------------------------------------------------|
G|-----------------------------------------------------------------------------------------|
D|-----------------------------------------------------------------------------------------|
A|--7----5----------------7----5-------------5h7----5--------------------------------------|
E|------------7-7-7--3--------------7--5--7--------------7-7-7--3----0----3----0----3---0--|

e|-----------------------------------------------------------------------------------------|
B|-----------------------------------------------------------------------------------------|
G|-----------------------------------------------------------------------------------------|
D|-----------------------------------------------------------------------------------------|
A|--7----5----------------7----5-------------5h7----5--------------------------------------|
E|------------7-7-7--3--------------7--5--7--------------7-7-7--3----0----3----0----3---0--|

Verse
e|------------------------------------------------------------------------------------------------|
B|------------------------------------------------------------------------------------------------|
G|------------------------------------------------------------------------------------------------|
D|--7------------------5--7---------------------5--7---------------------5--7--7--7--7--7--7--7---|
A|--7------------------5--7---------------------5--7---------------------5--7--7--7--7--7--7--7---|
E|--5--5*-5*-5*-5*-5*--3--5--5*-5*-5*-5*-5*-5*--3--5--5*-5*-5*-5*-5*-5*--3--5--5--5--5--5--5--5---|

e|-------------------------------------------------------------------------------------------------|
B|-------------------------------------------------------------------------------------------------|
G|-------------------------------------------------------------------------------------------------|
D|--5--7---------------------5--7---------------------5--9--9--9--9--9--9--9--9--9--9--9--9--9--9--|
A|--5--7---------------------5--7---------------------5--9--9--9--9--9--9--9--9--9--9--9--9--9--9--|
E|--3--5--5*-5*-5*-5*-5*-5*--3--5--5*-5*-5*-5*-5*-5*--3--7--7--7--7--7--7--7--7--7--7--7--7--7--7--|

e|-----------------------------------------------------------------------------------------|
B|-----------------------------------------------------------------------------------------|
G|-----------------------------------------------------------------------------------------|
D|-----------------------------------------------------------------------------------------|
A|--7----5----------------7----5-------------5h7----5--------------------------------------|
E|------------7-7-7--3--------------7--5--7--------------7-7-7--3----0----3----0----3---0--|

e|-----------------------------------------------------------------------------------------|
B|-----------------------------------------------------------------------------------------|
G|-----------------------------------------------------------------------------------------|
D|-----------------------------------------------------------------------------------------|
A|--7----5----------------7----5-------------5h7----5--------------------------------------|
E|------------7-7-7--3--------------7--5--7--------------7-7-7--3----0----3----0----3---0--|

Second Verse
e|------------------------------------------------------------------------------------------------|
B|------------------------------------------------------------------------------------------------|
G|------------------------------------------------------------------------------------------------|
D|--7------------------5--7---------------------5--7---------------------5--7--7--7--7--7--7--7---|
A|--7------------------5--7---------------------5--7---------------------5--7--7--7--7--7--7--7---|
E|--5--5*-5*-5*-5*-5*--3--5--5*-5*-5*-5*-5*-5*--3--5--5*-5*-5*-5*-5*-5*--3--5--5--5--5--5--5--5---|

e|-------------------------------------------------------------------------------------------------|
B|-------------------------------------------------------------------------------------------------|
G|-------------------------------------------------------------------------------------------------|
D|--5--7---------------------5--7---------------------5--9--9--9--9--9--9--9--9--9--9--9--9--9--9--|
A|--5--7---------------------5--7---------------------5--9--9--9--9--9--9--9--9--9--9--9--9--9--9--|
E|--3--5--5*-5*-5*-5*-5*-5*--3--5--5*-5*-5*-5*-5*-5*--3--7--7--7--7--7--7--7--7--7--7--7--7--7--7--|

Chorus
e|--------------------------------------------------------------------------------------------------|
B|--------------------------------------------------------------------------------------------------|
G|--------------------------------------------------------------------------------------------------|
D|--5--5--5--5--5--5--5--5--5--5--5--5--5--5--5--5--5--5--5--5--5--5--5--5--5--5--5--5--5--5--5--5--|
A|--3--3--3--3--3--3--3--3--5--5--5--5--5--5--5--5--3--3--3--3--3--3--3--3--5--5--5--5--5--5--5--5--|
E|--3--3--3--3--3--3--3--3--3--3--3--3--3--3--3--3--3--3--3--3--3--3--3--3--3--3--3--3--3--3--3--3--|
*****************************************************************************************************
e|--------------------------------------------------------------------------------------------------|
B|-----8-----8-----8-----8-----------------------------8-----8-----8-----8--------------------------|
G|--7-----7-----7-----7--------7-----7-----7-----7--7-----7-----7-----7--------7-----7-----7-----7--|
D|--------------------------5-----5-----5-----5-----------------------------5-----5-----5-----5-----|
A|--------------------------------------------------------------------------------------------------|
E|--------------------------------------------------------------------------------------------------|

e|--------------------------------------------------------------------------------------------------|
B|--------------------------------------------------------------------------------------------------|
G|--------------------------------------------------------------------------------------------------|
D|--5--5--5--5--5--5--5--5--5--5--5--5--5--5--5--5--5--5--5--5--5--5--5--5--5--5--5--5--5--5--5--5--|
A|--3--3--3--3--3--3--3--3--5--5--5--5--5--5--5--5--5--5--5--5--5--5--5--5--5--5--5--5--5--5--5--5--|
E|--3--3--3--3--3--3--3--3--3--3--3--3--3--3--3--3--3--3--3--3--3--3--3--3--3--3--3--3--3--3--3--3--|
*****************************************************************************************************
e|--------------------------------------------------------------------------------------------------|
B|-----8-----8-----8-----8-----------------------------7-----7-----7-----7-----7-----7-----7-----7--|
G|--7-----7-----7-----7--------7-----7-----7-----7--7-----7-----7-----7-----7-----7-----7-----7-----|
D|--------------------------5-----5-----5-----5-----------------------------------------------------|
A|--------------------------------------------------------------------------------------------------|
E|--------------------------------------------------------------------------------------------------|

e|-----------------------------------------------------------------------------------------|
B|-----------------------------------------------------------------------------------------|
G|-----------------------------------------------------------------------------------------|
D|-----------------------------------------------------------------------------------------|
A|--7----5----------------7----5-------------5h7----5--------------------------------------|
E|------------7-7-7--3--------------7--5--7--------------7-7-7--3----0----3----0----3---0--|

e|-----------------------------------------------------------------------------------------|
B|-----------------------------------------------------------------------------------------|
G|-----------------------------------------------------------------------------------------|
D|-----------------------------------------------------------------------------------------|
A|--7----5----------------7----5-------------5h7----5--------------------------------------|
E|------------7-7-7--3--------------7--5--7--------------7-7-7--3----0----3----0----3---0--|

Final Verse
e|------------------------------------------------------------------------------------------------|
B|------------------------------------------------------------------------------------------------|
G|------------------------------------------------------------------------------------------------|
D|--7------------------5--7---------------------5--7---------------------5--7--7--7--7--7--7--7---|
A|--7------------------5--7---------------------5--7---------------------5--7--7--7--7--7--7--7---|
E|--5--5*-5*-5*-5*-5*--3--5--5*-5*-5*-5*-5*-5*--3--5--5*-5*-5*-5*-5*-5*--3--5--5--5--5--5--5--5---|

e|-------------------------------------------------------------------------------------------------|
B|-------------------------------------------------------------------------------------------------|
G|-------------------------------------------------------------------------------------------------|
D|--5--7---------------------5--7---------------------5--9--9--9--9--9--9--9--9--9--9--9--9--9--9--|
A|--5--7---------------------5--7---------------------5--9--9--9--9--9--9--9--9--9--9--9--9--9--9--|
E|--3--5--5*-5*-5*-5*-5*-5*--3--5--5*-5*-5*-5*-5*-5*--3--7--7--7--7--7--7--7--7--7--7--7--7--7--7--|
***************************************************************************************************
e|-----------------------------------------------------14--14----14-14----14--14----14-14----14~---|
B|------------------------------------------------------x---x-----x--x-----x---x-----x--x-----x----|
G|-----12~-------------------14--12--11----11-12-11----11--11----11-11----11--11----11-11----11~---|
D|-------------------------------------------------------------------------------------------------|
A|-------------------------------------------------------------------------------------------------|
E|-------------------------------------------------------------------------------------------------|

Final Chorus
e|--------------------------------------------------------------------------------------------------|
B|--------------------------------------------------------------------------------------------------|
G|--------------------------------------------------------------------------------------------------|
D|--5--5--5--5--5--5--5--5--5--5--5--5--5--5--5--5--5--5--5--5--5--5--5--5--5--5--5--5--5--5--5--5--|
A|--3--3--3--3--3--3--3--3--5--5--5--5--5--5--5--5--3--3--3--3--3--3--3--3--5--5--5--5--5--5--5--5--|
E|--3--3--3--3--3--3--3--3--3--3--3--3--3--3--3--3--3--3--3--3--3--3--3--3--3--3--3--3--3--3--3--3--|
*****************************************************************************************************
e|--------------------------------------------------------------------------------------------------|
B|-----8-----8-----8-----8-----------------------------8-----8-----8-----8--------------------------|
G|--7-----7-----7-----7--------7-----7-----7-----7--7-----7-----7-----7--------7-----7-----7-----7--|
D|--------------------------5-----5-----5-----5-----------------------------5-----5-----5-----5-----|
A|--------------------------------------------------------------------------------------------------|
E|--------------------------------------------------------------------------------------------------|

e|--------------------------------------------------------------------------------------------------|
B|--------------------------------------------------------------------------------------------------|
G|--------------------------------------------------------------------------------------------------|
D|--5--5--5--5--5--5--5--5--5--5--5--5--5--5--5--5--5--5--5--5--5--5--5--5--5--5--5--5--5--5--5--5--|
A|--3--3--3--3--3--3--3--3--5--5--5--5--5--5--5--5--5--5--5--5--5--5--5--5--5--5--5--5--5--5--5--5--|
E|--3--3--3--3--3--3--3--3--3--3--3--3--3--3--3--3--3--3--3--3--3--3--3--3--3--3--3--3--3--3--3--3--|
*****************************************************************************************************
e|--------------------------------------------------------------------------------------------------|
B|-----8-----8-----8-----8-----------------------------7-----7-----7-----7-----7-----7-----7-----7--|
G|--7-----7-----7-----7--------7-----7-----7-----7--7-----7-----7-----7-----7-----7-----7-----7-----|
D|--------------------------5-----5-----5-----5-----------------------------------------------------|
A|--------------------------------------------------------------------------------------------------|
E|--------------------------------------------------------------------------------------------------|

e|-----------------------------------------------------------------------------------------|
B|-----------------------------------------------------------------------------------------|
G|-----------------------------------------------------------------------------------------|
D|-----------------------------------------------------------------------------------------|
A|--7----5----------------7----5-------------5h7----5--------------------------------------|
E|------------7-7-7--3--------------7--5--7--------------7-7-7--3----0----3----0----3---0--|

e|-----------------------------------------------------------------------------------------|
B|-----------------------------------------------------------------------------------------|
G|-----------------------------------------------------------------------------------------|
D|-----------------------------------------------------------------------------------------|
A|--7----5----------------7----5-------------5h7----5--------------------------------------|
E|------------7-7-7--3--------------7--5--7--------------7-7-7--3----0----3----0----3---0--|

e|-----------------------------------------------------------------------------------------|
B|-----------------------------------------------------------------------------------------|
G|-----------------------------------------------------------------------------------------|
D|-----------------------------------------------------------------------------------------|
A|--7----5----------------7----5-------------5h7----5--------------------------------------|
E|------------7-7-7--3--------------7--5--7--------------7-7-7--3----0----3----0----3---0--|

e|------------------------------------------|
B|------------------------------------------|
G|------------------------------------------|
D|--2--------2--------2---------2~-------2--|
A|--2--------2--------2---------2~-------2--|
E|--0--------0--------0---------0~-------0--|
            
Submit corrections

comments powered by Disqus
↑ Back to top | Weezer Tabs for Zep Song. Lyrics for acoustic guitar and electric guitar. Tablatures and chords are parodies/interpretations of the original songs. You may use it for private study, scholarship, research or language learning purposes only