>
 >
The Christmas Song

The Christmas Song Chords

Weezer - The Christmas Song chords, tabs, tablatures, lyrics

Guitar lessons | Add/correct | Request | Top 50 tabs Artists:  A B C D E F G H I J K L M N O P Q R S T U V W X Y Z 0-9

The Christmas Song Chords – Weezer

CD, Sheet music, Poster

Do you like The Christmas Song? Share with your friends now
Bass TabsBass Tabs v2Bass Tabs v3ChordsTabsUkulele
this is a b-side off their new album, awesome song, everyone should try to download it!!!

intro
-----
(drums, 2 bars)

   Dm

e ----------------------------------------
b ----------------------------------------
g -10--10--10--10--12--10-----------------
d ----------------------------------------
a -8---8---8---8---10--8-----------------
e ----------------------------------------

   F

e ----------------------------------------
b ----------------------------------------
g -10--10--10--10--12--10-----------------
d ----------------------------------------
a -8---8---8---8---10--8------------------
e ----------------------------------------

   Bflat

e ----------------------------------------
b ----------------------------------------
g -10--10--10--10--12--10-----------------
d ----------------------------------------
a -8---8---8---8---10--8-----------------
e ----------------------------------------

   Gm

e ----------------------------------------
b ----------------------------------------
g -10--10--10--10--12--10-----------------
d ----------------------------------------
a -8---8---8---8---10--8-----------------
e ----------------------------------------

   C

e ---------------------------------------
b ---------------------------------------
g -14^~~-----3--0------------------------
d -----------------3--0--3~--------------
a -12------------------------------------
e ---------------------------------------


section 1
---------

F           Dm           Gm         C
you told me you would be here by my side,
F          Dm            Gm           C
warming my heart on this cold winters night.
Dm         C         Bflat         C        F    Bflat   F
here i sit waiting beside the tree all by myself.


section 2
---------

F           Dm              Gm           C
you told me you would bring presents and treats,
F           Dm           Gm             C
cheering my spirits with homemade sweet meats.
Dm         C         Bflat         C        F    Bflat   F
here i sit waiting beside the tree all by myself.


section 3
---------

Dm                      Am
oh, could ever know how much i care?
                         Bflat
could you ever know that out somewhere
                         F
there's a boy who really hurts?


section 4
---------

      Am  Gm    Dm
since i   found you
          F
i found a girl
          Bflat
i found a thorn
          Gm
i found a queen
         C
now i am warm.


solo section
------------

    F           Dm          Gm          C

e ----------13--12--10--10------10--13--12~~------
b --10--13------------------11--------------------
g ------------------------------------------------
d ------------------------------------------------
a ------------------------------------------------
e ------------------------------------------------

    F           Dm          Gm          C

e ----------13--12--10--10------10--13--12~~------
b --10--13------------------11--------------------
g ------------------------------------------------
d ------------------------------------------------
a ------------------------------------------------
e ------------------------------------------------

   Dm          C        Bflat       C        F    Bflat   F

e --10-----10--8-----8--6-----6--5--5--3--5--5-----------5~~--
b -----10---------8--------6-----------------------6----------
g ------------------------------------------------------------
d ------------------------------------------------------------
a ------------------------------------------------------------
e ------------------------------------------------------------


section 3
---------

Dm                      Am
oh, could ever know how much i care?
                         Bflat
could you ever know that out somewhere
                         F
there's a boy who really hurts?


section 4
---------

      Am  Gm    Dm
since i   found you
          F
i found a girl
          Bflat
i found a thorn
          Gm
i found a queen
         C
now i am warm.


section 2 (double with solo)
---------

F           Dm              Gm           C
you told me you would bring presents and treats,
F           Dm           Gm             C
cheering my spirits with homemade sweet meats.
Dm         C         Bflat         C        F    Bflat   F
here i sit waiting beside the tree all by myself.


outro
-----

Dm         C         Bflat         G        F
here i sit waiting beside the tree all by myself.





Comments


Popular Weezer tabs & chords
If Youre Wondering If I Want You To I Want You To Bass Tabs
Say It Ain So Bass Tabs
Undone The Sweater Song Bass Tabs
Memories Chords
Across The Sea 1 Tabs
Holiday In The Sun Intro Tabs
Island In The Sun 1 Tabs
Smile Tabs
The Angel And The One 1 Tabs
Damage In Your Heart Ukulele


Song lyrics



↑ Back to top | Tablatures and chords are parodies/interpretations of the original songs. You may use it for private study, scholarship, research or language learning purposes only
© 2014 AZChords.com Contact us | Privacy policy | DMCA | Add/correct tabs | Request tabs | Top 50 tabs