» » »

Weezer, Teenage Victory Song Tabs (ver.1)

Artists:  A B C D E F G H I J K L M N O P Q R S T U V W X Y Z # 

Teenage Victory Song Tabs (ver.1)

Weezer Tabs
 Rating:
4/5 (4 votes)
Teenage Victory Song lessons Tabs too difficult? Try these video lessons and learn fast
                




Intro: needless to say, strum these chords more than once.


    D    E      A   G#  F#    D    E
-------------------------------------------------------
-------------------------------------------------------
----7----9--------------------7----9-------------------
----7----9------7---6---4-----7----9-------------------
----5----7------7---6---4-----5----7-------------------
----------------5---4---2------------------------------





Verse: "gonna bury you, gonna bury you"

    A        E        D       C#      F#  E 
--------------------#---------------------------#
--------------------#---------------------------#
-------------9------#-7-------6-----------------#
----7--------9------#-7-------6-------4---2-----#
----7--------7------#-5-------4-------4---2-----#
----5---------------#-----------------2---0-----# x2 from D



"oh, lord I'm coming home"

    D      E     F#                E
--------------------------------------
--------------------------------------
----7------9-----11----------------9--
----7------9-----11----------------9--
----5------7-----9-----------------7--
--------------------------------------  play verse again




Chorus: "come on everybody...

    D     E     A     F#    D     E     A     F#
------------------------------------------------------
------------------------------------------------------
----7-----9-----------------7-----9-------------------
----7-----9-----7-----4-----7-----9-----7-----4-------
----5-----7-----7-----4-----5-----7-----7-----4-------
----------------5-----2-----------------5-----2-------



    D     E      A   G#  F#    D     E
------------------------------------------------------
------------------------------------------------------
----7-----9--------------------7-----9----------------
----7-----9------7---6---4-----7-----9----------------
----5-----7------7---6---4-----5-----7----------------
-----------------5---4---2----------------------------



then play verse, chorus, verse. End on D.




Solo:


-----------------------------------------------------------
-----------------------------------------------------------
------6-6-6-4-------6-6-6-4-----6-7-7-7-6-4---6-7-7-7-6-4--
----7---------7---7---------7------------------------------
-----------------------------------------------------------
-----------------------------------------------------------
            
Submit corrections

comments powered by Disqus
↑ Back to top | Weezer Tabs for Teenage Victory Song. Lyrics for acoustic guitar and electric guitar. Tablatures and chords are parodies/interpretations of the original songs. You may use it for private study, scholarship, research or language learning purposes only