» » »

Weezer, Puerta Vallarta Tabs (ver.1)

Artists:  A B C D E F G H I J K L M N O P Q R S T U V W X Y Z # 

Puerta Vallarta Tabs (ver.1)

Weezer Tabs
Rating:
0/5 (0 votes)
Puerta Vallarta lessons Tabs too difficult? Try these video lessons and learn fast
                This is the newest demo by Weezer  "Puerta Vallarta" a very beautiful instrumental



	Rhythm 1							 	Repeat 4x

--------------0----------------------0-------------------------2---------------------------2------------------------------2------------------|
--------------1----------------------1-------------------------4---------------------------4------------------------------4------------------|
-------------------2-----------------------2---------------------------2-----------------------------2-------------------------------2-------|
-------------------------2------------------------2-----------------------------4----------------------------4--------------------------------|
---0--------------------------------------------------------------------------------------------------------------------------------------------|



	Rhythm 2													Repeat 2x
----------0-----------------0-----------------0----------------0----------------------0^2----------------------------0---------------------0------------------------0--------------------0------------------------0------------------------0-|
---------------2------------------2------------------------------------2---------------------------------------------------------0---------------------0--------------------------------------------0------------------------0--------------------|
-----3--------------3------------------3---------------3--------------------3-----------------------------------------------------------------------------------------------------------------------------------------------------------------------|





Rhythm 3						Repeat Rhythm 1 and 2
------------2------------------------2---------------------2-----------------|
-------------------1--------------------------1-------------------------------|
-----2-------------------2---------------------------2-----------------------|




Rhythm 4													repeat
-------------5-----------------5----------------------------7-------------------7--------------------------------------------0--------------------------------------------1-------------------------------------------------|
-----------------5------------------5------------------------------7------------------7---------------------------------0--------0---------0------------------------0------0---------0------------------------------------|
----------------------5--------------------5-----------------------------7------------------7-----------------------0-----------------0------------------------0-----------------0------------------------------------------|
---3--------------------------------------------------5-------------------------------------------------------------------------------------------------3-----------------------------------------------------------------------|



rhythm 5
-----0------------------------------------------------------------------------------------------------------------------------------------------------|
-----1-----------------0------------------------------------0------------------------------------------0-----1------0-----------------------------|
--------------------------- 2^0--------------0-----------------2---------------0--------------------0--------------------------------------------|
------------------------------------------------2----------------------------------0--------------------0-------------------------------------------|
-----3-----------------------------------------3-----------------------------------------------------------------------------------------------------|
            
Submit corrections

comments powered by Disqus
↑ Back to top | Weezer Tabs for Puerta Vallarta. Lyrics for acoustic guitar and electric guitar. Tablatures and chords are parodies/interpretations of the original songs. You may use it for private study, scholarship, research or language learning purposes only