» » »

Weezer, My Name Is Jonas Tabs (ver.4)

Artists:  A B C D E F G H I J K L M N O P Q R S T U V W X Y Z # 

My Name Is Jonas Tabs (ver.4)

Weezer Tabs
 Rating:
4/5 (4 votes)
My Name Is Jonas lessons Tabs too difficult? Try these video lessons and learn fast
                (Intro)


	This is the version of the intro to "My name is Jonas" from the Kitchen Tapes. Not the one from the blue album.  Although they are somewhat similar, they are differant. And I havent seen a tab for this yet so i figured "WHY NOT!?!?!"
 
*Note- This is the tab for the finger picking part at the very beginning of the song.

e--------------------------------------0--------------------------------------0-----------------------------------
b--------1---------1---------0----------0-----1-------1----------0-----------0---------------------------------
g-----------0---------0--------0-----------------2-------2----------0-------------------------------------------
d--------------2------------------0-----------------2------------------0-----------------------------------------
a----3--------------------2-----------------0-----------------2--------------------------------------------------
E------------------------------------------------------------------------------------------------------------------

(Here is where it differs from the Blue version)

e-----------------0-------------------0--------------------------------0------------------------------------------
b-------1-----------0-------0----------0-------1-------------0---------0----------------------------------------
g---------0--------------------0------------------2-------------0------------------------------------------------
d------------2-------------------0------------------2-------------0----------------------------------------------
a---3--------------------2------------------0------------2-------------------------------------------------------
E------------------------------------------------------------------------------------------------------------------

I'd like to thank my friend David (boardrking) for helping with this tab.  And helping figure it out.
            
Submit corrections

comments powered by Disqus
↑ Back to top | Weezer Tabs for My Name Is Jonas. Lyrics for acoustic guitar and electric guitar. Tablatures and chords are parodies/interpretations of the original songs. You may use it for private study, scholarship, research or language learning purposes only