» » »

Modern Dukes Bass tabs (ver.1)

Artists:  A B C D E F G H I J K L M N O P Q R S T U V W X Y Z # 

Modern Dukes Bass tabs (ver.1)

Weezer
Rating:
0/5 (0 votes)

Hard to play? Try these video lessons and learn fast.
                Intro:
G|-----------|-----------|-----------|-----------|
D|-----------|-----------|-----------|-----------|
A|-----------|-----------|-----------|-----------|
E|-3-0-3-3-0-|-3-0-3-3-0-|-3-0-3-3-0-|-3-0-3-3-0-|

  Verse: 
G|-------------------|-------------------|
D|----------00000000-|-------------------|
A|-------------------|-33333333----------|
E|-33333333----------|----------33333333-|

  Chorus:
G|-------------|-------------|
D|-------------|----------00-|
A|-33----33----|-33----33----|
E|----33----33-|----33-------|

  Bridge:
G|------------------|------------------|------------------|
D|-1111111111111111-|------------------|-1111111111111111-|
A|------------------|------------------|------------------|
E|------------------|-3333333333333333-|------------------|


  Song Order:
Intro
Verse x2
Chorus x2
Intro
Verse x2
Chorus x2
Bridge
Intro
Verse x2
Chorus x2
Bridge
Intro (until the end)
            
Hard to play? Try these video lessons and learn fast. | Correct




comments powered by Disqus
↑ Back to top | Tablatures and chords are parodies/interpretations of the original songs. You may use it for private study, scholarship, research or language learning purposes only