» » »

Change The World Tabs (ver.1)

Artists:  A B C D E F G H I J K L M N O P Q R S T U V W X Y Z # 

Change The World Tabs (ver.1)

Weezer
Rating:
0/5 (0 votes)

Hard to play? Try these video lessons and learn fast.
                CHANGE THE WORLD (from the 'Maladroit' demos)
WEEZER

This song was recorded for album #4, 'Maladroit', and I think it's made it on to
the record. Good song I think. Sorry, I couldn't really get the solo worked out, it
takes patience. But if someone wants to work that using this tab as a basis, and post
a complete version, that's fine.

CHORDS USED:

    A5     G5    C5    G#5   E5    D5
E|-------------------------------------|
B|-------------------------------------|
G|---------------5-----------------7---|
D|---7-----5-----5-----6-----2-----7---|
A|---7-----5-----3-----6-----2-----5---|
E|---5-----3-----------4-----0---------|
 
--------------------
--------------------

INTRO:
E|----------------------------------------------------|
B|----------------------------------------------------|
G|----------------------------------------------------|
D|----------------------------------------------------|
A|----------------------------------------------------|
E|-12\-0h3-0h3-0--0-3-0-3-5---0h3-0h3-0--0-3-0-3-5-7--| (x2)

VERSE 1:
A5						                G5	
You want it, you got it, you flaunt it and get your feet on the ground
    C5            G5   G#5
And love me right now

INTRO

VERSE 2:
A5						                     G5	
You like it, you hate it, you bought it and grooved your butt to the sound
    C5            G5   G#5
And love me right now

CHORUS:
E5            D5                  G5              C5
 You couldn't change the world to fit your little thing

INTRO
SOLO (over VERSE chords)
CHORUS

OUTRO:
E|----------------------------------------------------|
B|----------------------------------------------------|
G|----------------------------------------------------|
D|----------------------------------------------------|
A|-------------------------------------------7--------|
E|-12\-0h3-0h3-0--0-3-0-3-5---3-5---3-5---3--5--------|
            
Hard to play? Try these video lessons and learn fast. | Correct




comments powered by Disqus
↑ Back to top | Tablatures and chords are parodies/interpretations of the original songs. You may use it for private study, scholarship, research or language learning purposes only