» » »

Wednesday 13, Home Sweet Homicide Tabs (ver.2)

Artists:  A B C D E F G H I J K L M N O P Q R S T U V W X Y Z # 

Home Sweet Homicide Tabs (ver.2)

Wednesday 13 Tabs
Rating:
5/5 (3 votes)
Hard to play? Try these video lessons and learn fast.
                
Intro:

Eb-------------------------------------|
Bb-------------------------------------|
Gb-------------------------------------|
Db-------------------------------------|
Ab--77--2-2222-2-77-2-77-2-2-4-2-4-2-4-|
Db--77--2-2222-2-77-2-77-2-2-4-2-4-2-4-|

Verse/Chorus:

Eb---------------------------------------|
Bb---------------------------------------|
Gb---------------------------------------|
Db---------------------------------------|
Ab--77-2-222222-77-2-2-4-2-4-2-4---------|
Db--77-2-222222-77-2-2-4-2-4-2-4—--------|

Pre-Chorus:

Eb-------------------------------------------|
Bb-------------------------------------------|
Gb-------------------------------------------|
Db-------------------------------------------|
Ab--66666666-88888888-22-4-222-4-222-4-222-4-|
Db--66666666-88888888-22-4-222-4-222-4-222-4-|

Cont.
Eb-----------------------------------------------------|
Bb-----------------------------------------------------|
Gb-----------------------------------------------------|
Db-----------------------------------------------------|
Ab--66666666-88888888-99999999-11-11-11-11-11-11-11-11-|
Db--66666666-88888888-99999999-11-11-11-11-11-11-11-11-|
            

comments powered by Disqus
↑ Back to top | Wednesday 13 Tabs for Home Sweet Homicide. Lyrics for acoustic guitar and electric guitar. Tablatures and chords are parodies/interpretations of the original songs. You may use it for private study, scholarship, research or language learning purposes only