» » »

Wednesday 13, Home Sweet Homicide Bass tabs (ver.1)

Artists:  A B C D E F G H I J K L M N O P Q R S T U V W X Y Z # 

Home Sweet Homicide Bass tabs (ver.1)

Wednesday 13 Tabs
 Rating:
4/5 (4 votes)
Home Sweet Homicide lessons Tabs too difficult? Try these video lessons and learn fast
1
                

Tuning: (low to high) CGCF

Intro
F|------------------------------|
C|-------------------------555--|
G|1-3--------1-3----------------|
C|---5-555553----5----3/5-3-----| x4

Pre-Chorus
F|----------------35--------------------|
C|--------------35------------------555-|
G|1-3---------35-----1-3----------------|
C|---555555-35----------555555-3/5-3----|x2

Chorus
F|-------------------------------53--------------------------------------|
C|---------------------------------53------------------------------------|
G|11111011-33333013-------------------11111013---------33333013-55555035-|
C|------------------55555035-5555--------------55555035------------------|

Chorus Outro
F|----------------35--------------------|
C|--------------35------------------555-|
G|1-3---------35-----1-3----------------|
C|---555555-35----------555555-3/5-3----|x2

Verse
F|------------------------------|
C|-------------------------555--|
G|1-3--------1-3----------------|
C|---5-555553----5----3/5-3-----| x2

Pre-Chorus
F|----------------35--------------------|
C|--------------35------------------555-|
G|1-3---------35-----1-3----------------|
C|---555555-35----------555555-3/5-3----|x2

Chorus
F|-------------------------------53--------------------------------------|
C|---------------------------------53------------------------------------|
G|11111011-33333013-------------------11111013---------33333013-55555035-|
C|------------------55555035-5555--------------55555035------------------|

Chorus Outro
F|----------------35--------------------|
C|--------------35------------------555-|
G|1-3---------35-----1-3----------------|
C|---555555-35----------555555-3/5-3----|x4

Solo
F|----------------35-----------53-------|
C|--------------35---------------53-----|
G|1-3---------35-----1-3-----------53---|
C|---555555-35----------555555-------53-|

Solo Con't
F|----------------35--------------53---|
C|--------------35------------------53-|
G|1-3---------35-----1-3---------------|
C|---555555-35----------5555555555-----|

Chorus
F|-------------------------------53--------------------------------------|
C|---------------------------------53------------------------------------|
G|11111011-33333013-------------------11111013---------33333013-55555035-|
C|------------------55555035-5555--------------55555035------------------|

Chorus Outro
F|----------------35--------------------|
C|--------------35------------------555-|
G|1-3---------35-----1-3----------------|
C|---555555-35----------555555-3/5-3----|x3


F|--------------------------------------|
C|55555553-55555553-55555553--------555-|
G|--------------------------------------|
C|-----------------------------3/5-3----|

Verse
F|------------------------------|
C|-------------------------555--|
G|1-3--------1-3----------------|
C|---5-555553----5----3/5-3-----| x2

Outro
F|--------------------|
C|--------------------|
G|1-3--------1/10~----|
C|---5~---------------|





| /  slide up
| \  slide down
| h  hammer-on
| p  pull-off
| ~  vibrato
| +  harmonic
| x  Mute note
            
Submit corrections

comments powered by Disqus
↑ Back to top | Wednesday 13 Bass for Home Sweet Homicide. Lyrics for acoustic guitar and electric guitar. 1 Tablatures and chords are parodies/interpretations of the original songs. You may use it for private study, scholarship, research or language learning purposes only