» » »

Wednesday 13, Haunt Me Tabs (ver.3)

Artists:  A B C D E F G H I J K L M N O P Q R S T U V W X Y Z # 

Haunt Me Tabs (ver.3)

Wednesday 13 Tabs
 Rating:
4/5 (4 votes)
Haunt Me lessons Tabs too difficult? Try these video lessons and learn fast
                Album:(you all should know)

tune: CGCFAD (CGCF)
   NOTE: This is also for the bass too! well the intro is so just play it!

 (intro)(main riff)
D------------------------------------------------------------|
A------------------------------------------------------------|
F------------------------------------------------------------|
C------------------------------8-8--7-77---------------------|
G--55-5550--8-8-7-77---55-5550-6-6--5-55---------------------|
C--55-5550--8-8-7-77---55-5550-------------------------------|


D------------------------------------------------------------|
A------------------------------------------------------------|
F------------------------------------------------------------|
C-------------------------------88----77---------------------|
G--55-5550--8-8-7-77---55-5550--66----55---------------------|
C--55-5550--8-8-7-77---55-5550-------------------------------|

 (listen to cd for ryhthem)
D------------------------------------------------------------|
A--8~--8~--8~---8~--8~~---------8~--8~---88-77---------------|
F----7~--7~---7~--7~--7~--X3------7~--7~---------------------|
C------------------------------------------------------------|
G------------------------------------------------------------|
C------------------------------------------------------------|

D------------------------------------------------------------|
A------------------------------------------------------------|
F---/12---12\10----------------------------------------------|
C-----X---------x3------88--77-------------------------------|
G---/10---10\8----------66--55-------------------------------|
C------------------------------------------------------------|
  (sitting in the dark..........drinkin my own blood..)

  OOOOOkay this is how it goes BUT wait there is MORE!!!! e-mail me if you want more 
tabs. I can tab out most of the Transilvania 90210 album and some from Fang Bang. Sorry for 
            
Submit corrections

comments powered by Disqus
↑ Back to top | Wednesday 13 Tabs for Haunt Me. Lyrics for acoustic guitar and electric guitar. Tablatures and chords are parodies/interpretations of the original songs. You may use it for private study, scholarship, research or language learning purposes only