» » »

Wednesday 13, Haunt Me Tabs (ver.1)

Artists:  A B C D E F G H I J K L M N O P Q R S T U V W X Y Z # 

Haunt Me Tabs (ver.1)

Wednesday 13 Tabs
 Rating:
4/5 (7 votes)
Haunt Me lessons Tabs too difficult? Try these video lessons and learn fast
1
                

Tuning: Drop D (DADGBE)
NOTE: This can also be played in standard tuning, but I find it easier this way.

INTRO/CHORUS
(Only play the first part at the very beginning of the song)
E------------|-----------------------------------------------|
B------------|-----------------------------------------------|
G------------|-----------------------------------------------|
D--6-6--5-55-|-----------------------------6-6--5-55---------|
A--4-4--3-33-|-33-3333--6-6-5-55---33-3333-4-4--3-33---------|
D------------|-33-3333--6-6-5-55---33-3333-------------------|

(This plays over the the main riff in the intro and chrous)
E------------------------------------------------------------|
B--6~--6~--6~---6~--6~~---------6~--5~---66-55---------------|
G----5~--5~---5~--5~--5~--x3------5~--5~---------------------|
D------------------------------------------------------------|
A------------------------------------------------------------|
D------------------------------------------------------------|

VERSE
E------------------------------------------------------------|
B------------------------------------------------------------|
G------------------------------------------------------------|
D--------------------------------6-6--5-55-------------------|
A-13/33-3333--6-6-5-55---33-3333-4-4--3-33-------------------|
D-13/33-3333--6-6-5-55---33-3333-----------------------------|

PRE-CHORUS
D------------------------------------------------------------|
A------------------------------------------------------------|
F---/10---10\8-----------------------------------------------|
C----X----X--X-x3-------66--55-------------------------------|
G---/8----8-\6----------44--33-------------------------------|
C------------------------------------------------------------|
(Sitting in the dark, drinking my own blood)

SOLO
E|-13------------------------------------------------------------------|
B|----13-11-13-14-13-11-9-11-9--------------13-11-13-14-13-11-9-11-9---|
G|-----------------------------10--10/13-12-------------------------10-|
D|---------------------------------------------------------------------|
A|---------------------------------------------------------------------|
E|---------------------------------------------------------------------|


E|---------------------------------------------------------------------|
B|---------------------------------------------------------------------|
G|-10-13-13-12-12------------------------------------------------------|
D|---------------------------------------------------------------------|
A|---------------------------------------------------------------------|
E|---------------------------------------------------------------------|
(The main riff is played under this, during the solo)

So that's basically it. It's a pretty easy song. Just figure out the order and such, and 
should have it down! :]
            
Submit corrections

comments powered by Disqus
↑ Back to top | Wednesday 13 Tabs for Haunt Me. Lyrics for acoustic guitar and electric guitar. 1 Tablatures and chords are parodies/interpretations of the original songs. You may use it for private study, scholarship, research or language learning purposes only