» » »

We Butter The Bread With Butter, Alle Meine Entchen Tabs (ver.1)

Artists:  A B C D E F G H I J K L M N O P Q R S T U V W X Y Z # 

Alle Meine Entchen Tabs (ver.1)

We Butter The Bread With Butter Tabs
Rating:
4/5 (5 votes)
Hard to play? Try these video lessons and learn fast.
                Alle Main Entchen

We Butter The Bread With Butter

C,G,C,F,A,D


Guitar 1 and 2
||-------------------------------------------------|
||-------------------------------------------------|
||-------------------------------------------------|
||-------------------------------------------------|
||-------7-7-7-------------------7-7-7-------------|
||-0-0-0-------7-7-7-7-7-7-0-0-0-------7-7-7-7-7-7-|

|-------------------------------------------------|
|-------------------------------------------------|
|-------------------------------------------------|
|-------------------------------------------------|
|-------8-8-8-------------------8-8-8-------------|
|-5-5-5-------8-8-8-8-8-8-5-5-5-------8-8-8-8-8-8-|

|-------------------------------------------------------|
|-------------------------------------------------------|
|-------------------------------------------------------|
|-------10-10-10-------------------10-10-10-------------|
|----------------8-8-8-8-8-8----------------8-8-8-8-8-8-|
|-8-8-8----------------------8-8-8----------------------|

|----------------------------------------------------------||
|----------------------------------------------------------||
|----------------------------------------------------------||
|-------10-10-10-8-8-8-------------------------------------||
|----------------------12-12-12-10-10-10-8-8-8-7-7-7-3-3-3-||
|-8-8-8----------------------------------------------------|| 2x

Guitar 1 and 2 BREAKDOWN!
||---------------------------------------------------------------||
||---------------------------------------------------------------||
||---------------------------------------------------------------||
||---------------------------------------------------------------||
||-0-3-1-0-0---0-0-0---0000-0---0-3-1-0-000---0-0-000---00000000-||
||-0-3-1-0-0---0-0-0---0000-0---0-3-1-0-000---0-0-000---00000000-||
   . . . . .   . . .   .... .   . . . . ...   . . ...   ........

Guitar 1
||---------------------------------------------------------------------------------|
||---------------------------------------------------------------------------------|
||-21t2-21t2-21t2-21t2-22t2-22t2-19t2-22t2-21t3-21t3-21t3-21t3-22t3-22t3-19t3-21t3-|
||---------------------------------------------------------------------------------|
||---------------------------------------------------------------------------------|
||---------------------------------------------------------------------------------|

|-22t1-22t1-20t1-20t1-17t1-17t1-20t1-20t1------------------------------------------||
|-----------------------------------------22t--22t---------------------------------||
|--------------------------------------------2t---2t-24t2-24t2-22t2-22t2-21t2-21t2-||
|----------------------------------------------------------------------------------||
|----------------------------------------------------------------------------------||
|----------------------------------------------------------------------------------|| 3x

Guitar 2
||------------------------------------------------------------------------------------|
||------------------------------------------------------------------------------------|
||------------------------------------------------------------------------------------|
||-0~--5~--8~--7~--0-------------5-5--------------8-----------------7-----------------|
||-0~--5~--8~--7~--0-0-0--0--0-0-5-5-5-5--5-5-5-5-8-8-8-8-8--8--8-8-7-7--7-7--7-7-7-7-|
||-0~--5~--8~--7~--0-0-0--0--0-0-5-5-5-5--5-5-5-5-8-8-8-8-8--8--8-8-7-7--7-7--7-7-7-7-|
                     . .  .  . .     . .  . . . .   . . . .  .  . .   .  . .  . . . .

|-------------------------------------------------|
|-------------------------------------------------|
|-------------------------------------------------|
|-------------------------------------------------|
|-------7-7-7-------------------7-7-7-------------|
|-0-0-0-------7-7-7-7-7-7-0-0-0-------7-7-7-7-7-7-|

|-------------------------------------------------|
|-------------------------------------------------|
|-------------------------------------------------|
|-------------------------------------------------|
|-------8-8-8-------------------8-8-8-------------|
|-5-5-5-------8-8-8-8-8-8-5-5-5-------8-8-8-8-8-8-|

|-------------------------------------------------------|
|-------------------------------------------------------|
|-------------------------------------------------------|
|-------10-10-10-------------------10-10-10-------------|
|----------------8-8-8-8-8-8----------------8-8-8-8-8-8-|
|-8-8-8----------------------8-8-8----------------------|

|----------------------------------------------------------||
|----------------------------------------------------------||
|----------------------------------------------------------||
|-------10-10-10-8-8-8-------------------------------------||
|----------------------12-12-12-10-10-10-8-8-8-7-7-7-3-3-3-||
|-8-8-8----------------------------------------------------||

Guitar 1 and 2
||-----------------------------------------------------------------|
||-----------------------------------------------------------------|
||-----------------------------------------------------------------|
||-----------------------------------------------------------------|
||-000-0-0-5h8p5h8p5-000-000-0-0-3h7p3h7p3h7-000-000-0-0-5h8p5h8p5-|
||-000-0-0-----------000-000-0-0-------------000-000-0-0-----------|
   ... . .           ... ... . .             ... ... . .

|-------------------------------------------------------------------|
|-------------------------------------------------------------------|
|-------------------------------------------------------------------|
|-------------------------------------------------------------------|
|-000-000-0-0-3h7p3h7p3h7p3h7p3h7p3h7-555-5-5-5h8p5h8p5-555-555-5-5-|
|-000-000-0-0-------------------------555-5-5-----------555-555-5-5-|
  ... ... . .                         ... . .           ... ... . .

|-----------------------------------------------------------------------|
|-----------------------------------------------------------------------|
|-----------------------------------------------------------------------|
|-----------------------------------------------------------------------|
|-3h7p3h7p3h7-555-888-8-8-5h8p5h8p5-888-777-7-7-3h7p3h7p3h7p3h7p3h7p3h7-|
|-------------555-888-8-8-----------888-777-7-7-------------------------|
              ... ... . .           ... ... . .

||-------------------------------------------------------------------------|
||-------------------------------------------------------------------------|
||-------------------------------------------------------------------------|
||-------------------------------------------------------------------------|
||-000-0-0-5h8p5h8p5-000-777-7-7-3h7p3h7p3h7p3h7p3h7p3h7-555-5-5-5h8p5h8p5-|
||-000-0-0-----------000-777-7-7-------------------------555-5-5-----------|
   ... . .           ... ... . .                         ... . .

|-------------------------------------||
|-------------------------------------||
|-------------------------------------||
|-------------------------------------||
|-555-888-8-8-3h7p3h7p3h7p3h7p3h7p3h7-||
|-555-888-8-8-------------------------|| 2x
  ... ... . .

Guitar 1
||---------------------------------------------------------------------------------|
||---------------------------------------------------------------------------------|
||-21t2-21t2-21t2-21t2-22t2-22t2-19t2-22t2-21t3-21t3-21t3-21t3-22t3-22t3-19t3-21t3-|
||---------------------------------------------------------------------------------|
||---------------------------------------------------------------------------------|
||---------------------------------------------------------------------------------|

|-22t1-22t1-20t1-20t1-17t1-17t1-20t1-20t1------------------------------------------||
|-----------------------------------------22t--22t---------------------------------||
|--------------------------------------------2t---2t-24t2-24t2-22t2-22t2-21t2-21t2-||
|----------------------------------------------------------------------------------||
|----------------------------------------------------------------------------------||
|----------------------------------------------------------------------------------|| 3x

Guitar 2
||-------------------------||
||-------------------------||
||-------------------------||
||-0~--5--8~--7~7~-7-7-7-7-||
||-0~--5--8~--7~7~-7-7-7-7-||
||-0~--5--8~--7~7~-7-7-7-7-||

||--------------------------------------------------------------------||
||--------------------------------------------------------------------||
||--------------------------------------------------------------------||
||-0-------------5-5--------------8-----------------7-----------------||
||-0-0-0--0--0-0-5-5-5-5--5-5-5-5-8-8-8-8-8--8--8-8-7-7--7-7--7-7-7-7-||
||-0-0-0--0--0-0-5-5-5-5--5-5-5-5-8-8-8-8-8--8--8-8-7-7--7-7--7-7-7-7-|| 2x
     . .  .  . . . . . .  . . . . . . . . .  .  . . . .  . .  . . . .

Guitar 3
||-------------------------------------------------|
||-------------------------------------------------|
||-------------------------------------------------|
||-------------------------------------------------|
||-------7-7-7-------------------7-7-7-------------|
||-0-0-0-------7-7-7-7-7-7-0-0-0-------7-7-7-7-7-7-|

|-------------------------------------------------|
|-------------------------------------------------|
|-------------------------------------------------|
|-------------------------------------------------|
|-------8-8-8-------------------8-8-8-------------|
|-5-5-5-------8-8-8-8-8-8-5-5-5-------8-8-8-8-8-8-|

|-------------------------------------------------------|
|-------------------------------------------------------|
|-------------------------------------------------------|
|-------10-10-10-------------------10-10-10-------------|
|----------------8-8-8-8-8-8----------------8-8-8-8-8-8-|
|-8-8-8----------------------8-8-8----------------------|

|----------------------------------------------------------||
|----------------------------------------------------------||
|----------------------------------------------------------||
|-------10-10-10-8-8-8-------------------------------------||
|----------------------12-12-12-10-10-10-8-8-8-7-7-7-3-3-3-||
|-8-8-8----------------------------------------------------|| 2x
            

comments powered by Disqus
↑ Back to top | We Butter The Bread With Butter Tabs for Alle Meine Entchen. Lyrics for acoustic guitar and electric guitar. Tablatures and chords are parodies/interpretations of the original songs. You may use it for private study, scholarship, research or language learning purposes only