» » »

We Butter The Bread With Butter, Alle Meine Entchen Bass tabs (ver.1)

Artists:  A B C D E F G H I J K L M N O P Q R S T U V W X Y Z # 

Alle Meine Entchen Bass tabs (ver.1)

We Butter The Bread With Butter Tabs
 Rating:
4.3/5 (6 votes)
Alle Meine Entchen lessons Tabs too difficult? Try these video lessons and learn fast
1
                play that 2 times:

g-----------------------------------------------|
d---------------------------------9-7-----------|
a---4----4----6----6----8----8-------10-9-7-5-3-|
e--0-5--0-5--3-5--3-5--6-8--6-8--0--------------|

aftr break down .... whoo play that 2 times:

g--------------------------|
d--------------------------|
a--------------------------|
e-0-3-2-1-0---0-0-0---0--0-|

then play that one time:

g--------------------------------|
d--------------------------------|
a--------------------------------|
e-0(ring)-5(ring)-8(ring)-7------|(ring)

play that 1 time:

g------------------------------------------------------------------------|
d------------------------------------------------------------------------|
a------------------------------------------------------------------------|
e-0-0-0-0---0--0-0--5-5-5-5---5--5-5--8-8-8-8---8--8-8--7-7-7-7---7--7-7-|

then you play that (but just 1 time)

g-----------------------------------------------|
d---------------------------------9-7-----------|
a---4----4----6----6----8----8-------10-9-7-5-3-|
e--0-5--0-5--3-5--3-5--6-8--6-8--0--------------|

then  play that 8 times:

g------------------------------|
d------------------------------|
a-5-5-5-5-------3-3-3-3 -------|
e--------0-0-0-0-------0-0-0-0-|

then you play that 1 time:

g---------------------------------------|
d---------------------------------------|
a---------------------------------------|
e-0(ring)-5(ring)-8(ring)-7--7--7-7-7-7-|

tehn that 1 time:

g------------------------------------------------------------------------|
d------------------------------------------------------------------------|
a------------------------------------------------------------------------|
e-0-0-0-0---0--0-0--5-5-5-5---5--5-5--8-8-8-8---8--8-8--7-7-7-7---7--7-7-|

and the that 1 time:

g-------------------------------------------------|
d---------------------------------9-7-------------|
a---4----4----6----6----8----8-------10-9-7-5-3-0-|
e--0-5--0-5--3-5--3-5--6-8--6-8--0----------------|
            
Submit corrections

comments powered by Disqus
↑ Back to top | We Butter The Bread With Butter Bass for Alle Meine Entchen. Lyrics for acoustic guitar and electric guitar. 1 Tablatures and chords are parodies/interpretations of the original songs. You may use it for private study, scholarship, research or language learning purposes only