>
 >
Teen Town

Teen Town Bass Tabs

Weather Report - Teen Town chords, tabs, tablatures, lyrics

Guitar lessons | Add/correct | Request | Top 50 tabs Artists:  A B C D E F G H I J K L M N O P Q R S T U V W X Y Z 0-9

Teen Town Bass Tabs – Weather Report

CD, Sheet music, Poster

Do you like Teen Town? Share with your friends now
Bass TabsBass Tabs v2
          WEATHER REPORT - TEEN TOWN (BASS SOLO)
          ALBUM - 8.30
          
          I THINK IT'S PRETTY ACCURATE, I'VE ONLY BEEN PLAYING FOR 2,5 YEARS NOW, SO 
IF YOU FIND SOME MISTAKES I'M NOT SURPRISED. THE SONG IS JUST A BASS SOLO PERFORMANCE 
BY THE BEST BASSPLAYER EVER: JACO PASTORIOUS. THE SPEED MAKES IT A LITTLE HARD, BUT 
IF YOU PRACTICE IT'S GOING TO PAY OFF IN THE END. ENJOY!!! 
          (PARDON MY ENGLISH, IF THERE'S ANY MISTAKES IN THE LANGUAGE IT'S BECAUSE 
I'M SWEDISH)
          
          
             C13                               A13
          G |-----5---3---0-------0-2-0-------|---2---------------------------------|
          D |-----------------2---------2-0---|-----4-------------------------------|
          A |---3---3---3---3---------------4-|-------2---2-------------------------|
          E |---------------------------------|-------------------------------------|
              1   o   2   o   3   o   4   o     1   o   2   o    3       4
          
             F13                               D13
          G |---------------------0-1-2-5-7-6-|-9-----------------------------------|
          D |-----------------3---------------|---9-7-9-0-0-------------------------|
          A |-----------3-5-3---0-------------|-------------------------------------|
          E |---1---4-------------------------|-------------------------------------|
              1   o   2   o   3   o   4   o     1   o   2   o    3       4
          
             C13                               A13
          G |-------------0-------------------|------------2------------------------|
          D |---------2-----0---0-------------|--------------4-----2----------------|
          A |---------------------------------|-----2-3-4------4-2---4--------------|
          E |---------------------------------|-------------------------------------|
              1   o   2   o   3   o   4   o     1   o   2    o   3   o    4
          
             F13                               D13
          G |---------------------------------|-------------------------------0-1-2-|
          D |---------0-0---------------------|-----------------------2-3-4---------|
          A |-------------3-------------------|---------------3-4-5-----------------|
          E |---------------1---1-------------|-------------------------------------|
              1   o   2   o   3   o   4   o     1     o     2   o   3   o   4   o
          
             C13                               A13
          G |---------------------------------|-------------------------------2-1-0-|
          D |---1-0---------------------------|----------------------0-1-2----------|
          A |-------3---0---------------------|---------0-2-3----4------------------|
          E |---------------------------------|-------------------------------------|
              1   o   2   o  3   o    4   o     1    o    2   o    3   o    4   o
          
             F13                               D13
          G |---8-7-5-7-7-5-------------------|------2-5-----7----------------17-17-|
          D |---------------3-----------------|-------------------------------------|
          A |---------------------------------|-------------------------------------|
          E |---------------------------------|-------------------------------------|
              1   o   2   o   3        4        1    o   2   o     3      4   o
          
             C13                               A13
          G |---------------------------------|---2-------------------------0-------|
          D |---------------------------------|-2---4-0-----------------------2-0---|
          A |------------------------3----5-3-|---------4-2-----------------------3-|
          E |---------------3----5-3----------|-------------------------------------|
              1   o   2  o    3  o   4    o     1   o   2    o     3    o   4   o
          
             F13                               D13
          G |---------------------------------|----------------------------17----17-|
          D |---------------------------------|--------------------17---19----------|
          A |---------------------------------|-------------------------------------|
          E |---1---2----3--------------------|-------------------------------------|
              1   o    2   o  3   o   4   o     1   o   2   o   3  o    4     o
          
          
          
          
             C13                               A13
          G |-----5---3---0-------0-2-0-------|---2---------------------------------|
          D |-----------------2---------2-0---|-----4-------------------------------|
          A |---3---3---3---3---------------4-|-------2---2-------------------------|
          E |---------------------------------|-------------------------------------|
              1   o   2   o   3   o   4   o     1   o   2    o    3        4
          
             F13                               D13
          G |---------------------0-1-2-5-7-6-|-9-----------------------------------|
          D |-----------------3---------------|---9-7-9-0-0-------------------------|
          A |-----------3-5-3---0-------------|-------------------------------------|
          E |---1---4-------------------------|-------------------------------------|
              1   o   2   o   3   o   4   o     1   o   2   o    3       4
          
             C13                               A13
          G |-------------0-------------------|-----------2-------------------------|
          D |---------2-----0---0-------------|-------------4-----2-----------------|
          A |---------------------------------|-----2-3-4-----4-2---4---------------|
          E |---------------------------------|-------------------------------------|
              1   o   2   o   3   o   4   o     1   o   2   o   3   o    4
          
             F13                               D13
          G |---------------------------------|-------------------------------0-1-2-|
          D |---------0-0---------------------|-----------------------2-3-4---------|
          A |-------------3-------------------|---------------3-4-5-----------------|
          E |---------------1---1-------------|-------------------------------------|
              1   o   2   o   3   o   4   o     1     o     2   o   3   o   4   o
          
             C13                               A13
          G |---------------------------------|-------------------------------------|
          D |---1-0---------------------------|-------------------------------------|
          A |-------3---0---------------------|-------------------------------------|
          E |---------------------------------|-------------------------------------|
              1   o   2   o   3   o   4   o     1    o    2   o    3   o    4   o
          
             F13                               D13
          G |---------------------------------|-------------------------------0-1-2-|
          D |---------------------------------|-----------------------2-3-4---------|
          A |---------------------------------|---------------3-4-5-----------------|
          E |---------------------------------|-------------------------------------|
              1   o   2   o   3   o   4   o     1     o     2   o   3   o   4   o
          
             C13                               A13
          G |---------------------------------|-------------------------------------|
          D |---1-0---------------------------|-------------------------------------|
          A |-------3---0---------------------|-------------------------------------|
          E |---------------------------------|-------------------------------------|
              1   o   2   o   3   o   4   o     1    o    2    o   3    o   4   o
          
             F13                               D13
          G |---------------------------------|-------------------------------------|
          D |---------------------------------|-------------------------------------|
          A |---------------------------------|-------------------------------------|
          E |---------------------------------|-------------------------------------|
              1   o   2   o   3   o   4    o    1    o    2   o    3    o   4   o
          
               C13                               A13
          G |---------------------------------|-------------------------------------|
          D |---------------------------------|-------------------------------------|
          A |---------------------------------|-------------------------------------|
          E |---------------------------------|-------------------------------------|
              1   o   2   o   3   o   4    o    1    o    2   o    3    o   4   o
              F13                               D13
          G |---------------------------------|-------------------------------------|
          D |---------------------------------|-----------------------------------o-|
          A |---------------------------------|-----------------------------------o-|
          E |---------------------------------|-------------------------------------|
              1   o   2   o   3   o   4    o    1    o    2   o    3    o   4   o
          
             D13
          G |---------------------------------|-------------------------------------|
          D |---------------------------------|-------------------------------------|
          A |---------------------------2---2-|-4-----------------------------------|
          E |-----------0---0---4---4---------|-------------------------------------|
              1         2   o   3   o   4   o   1         2        3        4
          
          G |---------------------------------|-------------------------------------|
          D |---------------------------2---2-|-4-----------------------------------|
          A |-----------0---0---4---4---------|-------------------------------------|
          E |---------------------------------|-------------------------------------|
              1         2   o   3   o   4   o   1         2        3        4
          
             E13                               C#13
          G |---------------------------------|-------------------------------------|
          D |-------2-------------------------|-------------------------------------|
          A |---------------------------2---2-|-4-----------------------------------|
          E |-----------0---0---4---4---------|-------------------------------------|
              1     o   2   o   3   o   4   o   1         2        3        4
          
             A13                               F#13
          G |---------------------------------|-------------------------------------|
          D |---------------------------2---2-|-4-----------------------------------|
          A |-----------0---0---4---4---------|-------------------------------------|
          E |---------------------------------|-------------------------------------|
              1     o   2   o   3   o   4   o   1         2        3        4
          
             E13                               C#13
          G |---------------------------------|-------------------------------------|
          D |---------------------------------|-------------------------------------|
          A |---------------------------------|-------------------------------------|
          E |---------------------------------|-------------------------------------|
              1       2       3       4         1         2        3        4
          
             A13                               F#13
          G |---------------------------------|-------------------------------------|
          D |---------------------------------|-----------------------------------o-|
          A |---------------------------------|-----------------------------------o-|
          E |---------------------------------|-------------------------------------|
              1       2       3       4         1         2        3        4
          
             E13                               C#13
          G |---------------------------------|-------------------------------------|
          D |---------------------------------|-------------------------------------|
          A |---------------------------------|-------------------------------------|
          E |---------------------------------|-------------------------------------|
              1       2       3       4         1         2        3        4
          
             A13                               F#13
          G |---------------------------------|-------------------------------------|
          D |---------------------------------|-------------------------------------|
          A |---------------------------------|-------------------------------------|
          E |---------------------------------|-------------------------------------|
              1       2       3       4         1         2        3        4
          
             E13                               C#13
          G |---------------------2---3-----6-|---3-0-------------------------------|
          D |-------------------2---0---6-4---|-3-----------------------------------|
          A |---------------------------------|-------------------------------------|
          E |---------------------------------|-------------------------------------|
              1        2      3   o   4   o     1   o    2        3        4
          
             A13                               F#13
          G |-------------------4-------------|-------------------------------------|
          D |-----------------4---2-4-5-2-0---|---2-1-------------------------------|
          A |-------------------------------3-|-3-----3-----------------------------|
          E |---------------------------------|---------1-1-------------------------|
              1       2       3   o   4   o     1   o   2         3        4 
          
             E13                               C#13
          G |---------------------------------|-0-3-----------------3---6---3-1-----|
          D |-------------------------2---4-2-|-----3---3-------------6---------(1)-|
          A |-------------2-------4-2---------|-------------------------------------|
          E |---------------------------------|-------------------------------------|
              1       2   o   3   o   4   o     1   o   2    o    3   o   4   o
          
             A13                               F#13
          G |---------------------------------|-------------------------------------|
          D |-(1)-----------------------------|---------------------4-4-2-4---4-2-4-|
          A |---------------------------------|-------------------------------------|
          E |---------------------------------|-------------------------------------|
               1      2       3       4         1         2         3   o   4   o
          
             E13                               C#13
          G |---------------------------------|-------------------------------------|
          D |-o-------------------------------|-------------------------------------|
          A |-o-------------------------------|-------------------------------------|
          E |---------------------------------|-------------------------------------|
              1       2       3       4         1         2        3        4
          
             A13                               F#13
          G |---------------------------------|-------------------------------------|
          D |---------------------------------|-------------------4-4-2-4---4-2-4-o-|
          A |---------------------------------|-----------------------------------o-|
          E |---------------------------------|-------------------------------------|
              1      2       3       4          1         2       3   o   4   o
          
             E13                             
          G |---------------------------------|-------------------------------------|
          D |---------------------------------|-------------------------------------|
          A |---------------------------------|-------------------------------------|
          E |---------------------------------|-------------------------------------|
              1       2       3       4         1         2        3        4
          
             E13                               
          G |---------------------------------|-------------------------------------|
          D |---------------------------------|-------------------------------------|
          A |---------------------------------|-------------------------------------|
          E |---------------------------------|-------------------------------------|
              1       2       3       4         1         2        3        4
          
             E13 
          G |---------------------------------|-------------------------------------|
          D |---------------------------------|-------------------------------------|
          A |---------------------------------|-------------------------------------|
          E |---------------------------------|-------------------------------------|
              1       2       3       4         1         2        3        4
          
             E13                    E7#9                A13b9   D13#11    G13
          G |---------------------------------|-------------------------------------|
          D |-----------------------(2)-------|-(2)--------------0---------5-5------|
          A |---------------------------------|----------0--------------------------|
          E |-----------------------(0)-------|-(0)---------------------------------|
              1        2       3     o    4  o   1       2       3         4





Comments


Popular Weather Report tabs & chords
A Remark You Made 1 Bass Tabs
Barbary Coast Bass Tabs
Birdland Bass Tabs
Birdland 1 Bass Tabs
Chiken Bass Tabs
Cucumber Slumber Bass Tabs
Punk Jazz Bass Tabs
River People Bass Tabs
Birdland Tabs
Birdland Intro 1 Tabs


Song lyrics



↑ Back to top | Tablatures and chords are parodies/interpretations of the original songs. You may use it for private study, scholarship, research or language learning purposes only
© 2014 AZChords.com Contact us | Privacy policy | DMCA | Add/correct tabs | Request tabs | Top 50 tabs