>
 >
Teen Town 1

Teen Town 1 Bass Tabs

Weather Report - Teen Town 1 chords, tabs, tablatures, lyrics

Guitar lessons | Add/correct | Request | Top 50 tabs Artists:  A B C D E F G H I J K L M N O P Q R S T U V W X Y Z 0-9

Teen Town 1 Bass Tabs – Weather Report

CD, Sheet music, Poster

Do you like Teen Town 1? Share with your friends now
Bass TabsBass Tabs v2
Gtr I (E A D G) - '-- BASSTORIUS --'

  Q=120
 4/4
  Gtr I
  S S S S S S S S E S S S S S S   S S S S S S E H
|-----5---3---------0-2-0-------|---2----------------|
|-------------5---2-------2-0---|-----2--------------|
|---3---3---3---3-------------4-|-------2---2--------|
|-------------------------------|--------------------|


  S S S S S S S S S S S S S S S S   S S S S  S  S E H
|---------------------------5-7-8-|-9--------------------|
|-----------------3---5-6-7-------|---9-7-9--------------|
|-----------3-5-3---0-------------|----------------------|
|---1---4-5-----------------------|---------10-10--------|


  Q   S  S  S  S S  S E Q    E S S S S S S S S E Q    Q   S  S S S S S E Q
|--------------------------|------------------------|------------------------|
|--------------------------|---------7--------------|------------------------|
|----------10--------------|-----------9-----7------|------------------------|
|----11-12----10---10------|---7-8-9-----9-7---9----|----10-10-8-1---1-------|


  Q  S S S S S S S S S  S  S  S   S  S  S S S S E H
|-------------------------------|----------------------|
|-------------------------------|----------------------|
|------3-4-5---7-8-9---10-11-12-|----------------------|
|-------------------------------|---11-10-8---5--------|


  E S S S S S S S  S  S  S S  S  S  S
|-------------------------------------|
|-------------------------------------|
|----------------------------12-11-10-|
|-----5-7-8---9---10-11-12------------|


  S S S S E S S H      E S S +E  S S Q  E  S  S
|---8-7-5-7-5--------|---2-5-(5)-7--------17-17-|
|-------------3------|--------------------------|
|--------------------|--------------------------|
|--------------------|--------------------------|


  Q  E E +E  S S E S S   S S S S S S E Q  S S S S   S S S S S S E H
|----------------------|---2--------------0-------|--------------------|
|----------------------|-2---4--------------0-----|--------------------|
|------------0---3-5-3-|-------5-4-2----------4-3-|--------------------|
|------3-(3)---3-------|--------------------------|---0---2---3--------|


  H    E  S S  S  S S  S
|--------12---14-17---17----*|
|---------------------------*|
|---------------------------*|
|---------------------------*|


Duration Legend
---------------
W - whole; H - half; Q - quarter; E - 8th; S - 16th; T - 32nd; X - 64th; a - acciaccatura
+ - note tied to previous; . - note dotted; .. - note double dotted
Uncapitalized letters represent notes that are staccato (1/2 duration)
Irregular groupings are notated above the duration line
Duration letters will always appear directly above the note/fret number it represents the
duration for.  Duration letters with no fret number below them represent rests.  Multi-
bar rests are notated in the form Wxn, where n is the number of bars to rest for.  Low
melody durations appear below the staff

Tablature Legend
----------------
 h   - hammer-on
 p   - pull-off
 b   - bend
 pb  - pre-bend
 r   - bend release (if no number after the r, then release immediately)
 /\  - slide into or out of (from/to "nowhere")
 s   - legato slide
 S   - shift slide
<n>  - natural harmonic
[n]  - artificial harmonic
n(n) - tapped harmonic
 ~   - vibrato
 tr  - trill
 T   - tap
 TP  - trem. picking
 PM  - palm muting
\n/  - tremolo bar dip; n = amount to dip
 \n  - tremolo bar down
 n/  - tremolo bar up
/n\  - tremolo bar inverted dip
 =   - hold bend; also acts as connecting device for hammers/pulls
 <>  - volume swell (louder/softer)
 x   - on rhythm slash represents muted slash
 o   - on rhythm slash represents single note slash

Misc Legend
-----------
 |  - bar
||  - double bar
||o - repeat start
o|| - repeat end
*|  - double bar (ending)
 :  - bar (freetime)
 $  - Segno
 &  - Coda
Tempo markers - <E/E./Q/Q./H/H.> = BPM(8/16=s8/s16), where s8 = swing 8ths, s16 = swing 16ths





Comments


Popular Weather Report tabs & chords
A Remark You Made Bass Tabs
Barbary Coast Bass Tabs
Birdland Bass Tabs
Birdland 1 Bass Tabs
Chiken Bass Tabs
Main In The Green Shirt Bass Tabs
Teen Town Bass Tabs
Birdland Tabs
Birdland (Intro) Tabs
Birdland Intro 1 Tabs


Song lyrics



↑ Back to top | Tablatures and chords are parodies/interpretations of the original songs. You may use it for private study, scholarship, research or language learning purposes only
© 2014 AZChords.com Contact us | Privacy policy | DMCA | Add/correct tabs | Request tabs | Top 50 tabs