» » »

Ready For The Fall Tabs (ver.2)

Artists:  A B C D E F G H I J K L M N O P Q R S T U V W X Y Z # 

Ready For The Fall Tabs (ver.2)

We Are The Ocean
Rating:
0/5 (0 votes)

Hard to play? Try these video lessons and learn fast.
                Intro (Guitar 1):

e|--------------------------------------------------------------------------|
B|---5----------------------------------------------------------------------|
G|------4--5----------------------------------------------------------------|
D|------------7--5----------------------------------------------------------|
A|--------------------------------------------------------------------------|
E|--------------------------------------------------------------------------|

e|-------------------------------------------------------------------------|
B|-------------------------------------------------------------------------|
G|-----7h9-----------------------------------------------------------------|
D|---------9-10-9-10-(x8)-7------------------------------------------------|
A|-------------------------------------------------------------------------|
E|-------------------------------------------------------------------------|

For intro (guitar 2) see verse (guitar 2)

Verse (Guitar 1):


e|--------------------------------------------------------------------------|
B|--------5--(x4)--------(x4)-(x4)-----------------------------------------|
G|----5-4-----------5-4-----------------------------------------------------|
D|----------------------5--------------------------------------------------|
A|--------------------------------------------------------------------------|
E|--------------------------------------------------------------------------|

Verse (Guitar 2):


e|--------------------------------------------------------------------------|
B|--------------------------------------------------------------------------|
G|--2-------3---------------------------------------------------------------|
D|--2-(x3)--2-(x3)-(x4)-----------------------------------------------------|
A|--1-------1---------------------------------------------------------------|
E|--------------------------------------------------------------------------|

Verse Solo (Guitar 1):

e|--------------------------------------------------------------------------|
B|--------------------------------------------------------------------------|
G|--12-------9--------------------------------------------------------------|
D|-----10-12---12-10-9h10---------------------------------------------------|
A|--------------------------------------------------------------------------|
E|--------------------------------------------------------------------------|

then repeat intro

Verse Solo (Guitar 2):

e|--------------------------------------------------------------------------|
B|--------------------------------------------------------------------------|
G|---2----------3-----------------------------------------------------------|
D|---2-(x20)----2-(x20)-(x4)--2-(x4)----------------------------------------|
A|---1----------1-------------3---------------------------------------------|
E|----------5----------4----------------------------------------------------|

then

e
B
G 2       3
D 2 (x8)  2 (x8) (x2) 2 (x4)
A 1       1           3
E

Chorus (Both Guitars):

e|--------------------------------------------------------------------------|
B|--------------------------------------------------------------------------|
G|----2--------3------------------------------------------------------------|
D|----2-(x10)--2-(x10)-2-(x20)----------------------------------------------|
A|----1--------1-------1----------------------------------------------------|
E|--------------------------------------------------------------------------|

Chorus Rhythm: down, down, up, down, up, then repeat
After first chorus for guitar 1 repeat first part of intro

Bridge (Guitar 1):

e|--------------------------------------------------------------------------|
B|--------------------------------------------------------------------------|
G|--------------------------------------------------------------------------|
D|--------------------------------------------------------------------------|
A|---------5-(x5)-----------------------------------------------------------|
E|--------------------------------------------------------------------------|

Bridge (Guitar 2):

e|--------------------------------------------------------------------------|
B|--------------------------------------------------------------------------|
G|---2------3------------2---------3-------2--------------------------------|
D|---2-(x1)-2-(x1)-(x2)--2-(x1)----2-(x12)-2-(x1)---------------------------|
A|---1------1------------1---------1-------1--------------------------------|
E|--------------------------------------------------------------------------|

Outro:

e|--------------------------------------------------------------------------|
B|--------------------------------------------------------------------------|
G|---2--------3-------------------------------------------------------------|
D|---2-(x32)--2-(x32)-(x4)--2-(x1)------------------------------------------|
A|---1--------1-------------3-----------------------------------------------|
E|--------------------------------------------------------------------------|
            
Hard to play? Try these video lessons and learn fast. | Correct




comments powered by Disqus
↑ Back to top | Tablatures and chords are parodies/interpretations of the original songs. You may use it for private study, scholarship, research or language learning purposes only