» » »

Ready For The Fall Tabs (ver.1)

Artists:  A B C D E F G H I J K L M N O P Q R S T U V W X Y Z # 

Ready For The Fall Tabs (ver.1)

We Are The Ocean
Rating:
3/5 (2 votes)

Hard to play? Try these video lessons and learn fast.
                -------------------------------------------------------------------------------
-------------------------------------------------------------------------------

Tuning: Standard
(intro)
e|-------------------------------------------------------------------------------|
B|---5---------------------------------------------------------------------------|
G|------4--5---------------------------------------------------------------------|
D|------------7--5---------------------------------------------------------------|
A|-------------------------------------------------------------------------------|
E|-------------------------------------------------------------------------------|
Riff (repeat many times)
e|------------------------------------------------------------------------------------|
B|------------------------------------------------------------------------------------|
G|----7-h-9-h-7-----------------------------------------------------------------------|
D|---------------9-----10--9-10--9----------------------------------------------------|
A|------------------------------------------------------------------------------------|
E|------------------------------------------------------------------------------------|
Verse (repeat many times)
e|----------------------------------------------------------------------------------|
B|----------------------------------------------------------------------------------|
G|-------9-------9------------------------------------------------------------------|
D|-------x-------x------------------------------------------------------------------|
A|----7--7---7-7-7------------------------------------------------------------------|
E|----------------------------------------------------------------------------------|
             . .

Chorus (lead) (very fast)
e|-------------------------------------------------------------------------------------|
B|-------------------------------------------------------------------------------------|
G|-----7-9-7-4-5-4-5-4-----------------------------------------------------------------|
D|-------------------------------------------------------------------------------------|
A|-------------------------------------------------------------------------------------|
E|-------------------------------------------------------------------------------------|

e|-------------------------------------------------------------------------------|
B|-------------------------------------------------------------------------------|
G|----9------5-------------------------------------------------------------------|
D|----9------5-------------------------------------------------------------------|
A|----7------3-------------------------------------------------------------------|
E|-------------------------------------------------------------------------------|


| /  slide up
| \  slide down
| h  hammer-on
| p  pull-off
| ~  vibrato
| +  harmonic
| x  Mute note
===============================================================================
            
Hard to play? Try these video lessons and learn fast. | Correct




comments powered by Disqus
↑ Back to top | Tablatures and chords are parodies/interpretations of the original songs. You may use it for private study, scholarship, research or language learning purposes only