» » »

We Are The In Crowd, Never Be What You Want Bass tabs (ver.1)

Artists:  A B C D E F G H I J K L M N O P Q R S T U V W X Y Z # 

Never Be What You Want Bass tabs (ver.1)

We Are The In Crowd Tabs
 Rating:
3.7/5 (6 votes)
Never Be What You Want lessons Tabs too difficult? Try these video lessons and learn fast
                Bass Player: Mike Ferri
Tuning: Drop C



| /  slide up
| \  slide down
| h  hammer-on
| p  pull-off
| ~  vibrato
| +  harmonic
| x  Mute note
| <> Bend note


[Notes are always 1s and not 11s unless I have stated otherwise.]




Intro (0:01)

F|-----------------------------------------------------------------------------------|
C|-----------------------------------------------------------------------------------|
G|-4--------------------4-----------------4-------------------4444-4444-4444---------|
C|----66--1-1--333--11-----66--1-1-11--1-----66--1-1--333--11----------------6--1--6-|

Verse (Bass comes in at 0:30)

F|-----------------------------------------------------------------------------------|
C|-----------------------------------------------------------------------------------|
G|-----------6666-6666-4444-4444-4444-4444---------------------1111-1111-4444-4444---|
C|-6666-6666-------------------------------6666-6666-1111-1111-----------------------|

[Notes are grouped together so its easier to read, no other reason]


Chorus (0:45)

F|-----------------------------------------------------------------------------------|
C|-----------------------------------------------------------------------------------|
G|-4444-4444-------------------------------4444-4444---------------------6666-6666---|
C|-----------6666-6666-1111-1111-3333-3333-----------6666-6666-1111-1111-------------|

Verse (1:00)

F|-----------------------------------------------------------------------------------|
C|-----------------------------------------------------------------------------------|
G|-----------6666-6666-4444-4444-4444-4444---------------------1111-1111-4444-4444---|
C|-6666-6666-------------------------------6666-6666-1111-1111-----------------------|

Pre-Chorus (1:15)

F|--------------------------------------------------------------------6666-6666-----|
C|----------------------------------------------------------------------------------|
G|-1-1------3-3-------4444-4444-6666-6666---1-1------3-3-----4444-4444--------------|
C|----------------------------------------------------------------------------------|

Chorus (1:29)

F|-----------------------------------------------------------------------------------|
C|-----------------------------------------------------------------------------------|
G|-4444-4444-------------------------------4444-4444---------------------6666-6666---|
C|-----------6666-6666-1111-1111-3333-3333-----------6666-6666-1111-1111-------------|

F|-----------------------------------------------------------------------------------|
C|-----------------------------------------------------------------------------------|
G|-4444-4444-------------------------------4444-4444---------------------6666-6666---|
C|-----------6666-6666-1111-1111-3333-3333-----------6666-6666-1111-1111-------------|

Bridge (2:06)

F|-----------------------------------------------------------------------------------|
C|-----------------------------------------------------------------------------------|
G|--------------------------------------------------------------4444-4444-4444-4-----|
C|-3333-3333-1111-1111-6666-6666-6666-6666--3333-3333-1111-1111-------------------1--|

F|-----------------------------------------------------------------------------------|
C|-----------------------------------------------------------------------------------|
G|--------------------------------------------------------------1111-1111-1111---3---|
C|-3333-3333-1111-1111-6666-6666-6666-6666--3333-3333-1111-1111----------------------|

F|------------------------|
C|------------------------|
G|-4444-4444--------------|
C|-----------1111-1111----|

Chorus (2:40)

F|-----------------------------------------------------------------------------------|
C|-----------------------------------------------------------------------------------|
G|-4-4-------------------------------------4444-4444---------------------6666-6666---|
C|-----------6666-6666-1111-1111-3333-3333-----------6666-6666-1111-1111-------------|
				
Ending (3:02)

F|--------------------------------------------||
C|--------------------------------------------||
G|-4--------------------4444-4444-4444--------||
C|----66--1-1--333--11-----------------6--1---||




===============================================================================
            
Submit corrections

comments powered by Disqus
↑ Back to top | We Are The In Crowd Bass for Never Be What You Want. Lyrics for acoustic guitar and electric guitar. Tablatures and chords are parodies/interpretations of the original songs. You may use it for private study, scholarship, research or language learning purposes only