>
 >
History Repeats 1

History Repeats 1 Guitar Tabs

We Are Scientists - History Repeats 1 chords, tabs, tablatures, lyrics

Guitar lessons | Add/correct | Request | Top 50 tabs Artists:  A B C D E F G H I J K L M N O P Q R S T U V W X Y Z 0-9

History Repeats 1 Guitar Tabs – We Are Scientists

CD, Sheet music, Poster

Do you like History Repeats 1? Share with your friends now
Bass TabsTabsTabs v2
-------------------------------------------------------------------------------
                             History Repeats - We Are Scientists
-------------------------------------------------------------------------------

Tuning: EADGBe

Intro:

e|33-55-33-55-33-55-33-55-33-55-33-55-33-55-33-55-33-55-33-55-33-55-33-55----|
B|55-55-55-55-55-55-55-55-55-55-55-55-55-55-55-55-55-55-55-55-55-55-55-55----|
G|44-44-44-44-44-44-44-44-44-44-44-44-44-44-44-44-44-44-44-44-44-44-44-44----|
D|---------------------------------------------------------------------------|
A|---------------------------------------------------------------------------|
E|---------------------------------------------------------------------------|

Verse:

e|33-55-33-55-33-55-33-55----------------------------------------------------|
B|55-55-55-55-55-55-55-55----------------------------------------------------|
G|44-44-44-44-44-44-44-44----------------------------------------------------|x3
D|---------------------------------------------------------------------------|
A|---------------------------------------------------------------------------|
E|---------------------------------------------------------------------------|
on 4th go to
e|33-55-33-55-33-55----------------------------------------------------------|
B|55-55-55-55-55-55-5555555--------------------------------------------------|
G|44-44-44-44-44-44-4444444--------------------------------------------------|
D|---------------------------------------------------------------------------|
A|---------------------------------------------------------------------------|
E|---------------------------------------------------------------------------|

Chorus Pt. 1:

e|---------------------------------------------------------------------------|
B|---------------------------------------------------------------------------|
G|9--------------------------------------------------------------------------|x32
D|10-------------------------------------------------------------------------|
A|x--------------------------------------------------------------------------|
E|8--------------------------------------------------------------------------|

e|---------------------------------------------------------------------------|
B|---------------------------------------------------------------------------|
G|9--------------------------------------------------------------------------|x32
D|10-------------------------------------------------------------------------|
A|x--------------------------------------------------------------------------|
E|9--------------------------------------------------------------------------|

e|---------------------------------------------------------------------------|
B|---------------------------------------------------------------------------|
G|9--------------------------------------------------------------------------|x31
D|10-------------------------------------------------------------------------|
A|x--------------------------------------------------------------------------|
E|8--------------------------------------------------------------------------|

Chorus Pt. 2:

e|---------------------------------------------------------------------------|
B|---------------------------------------------------------------------------|
G|---------------------------------------------------------------------------|
D|5555555555555555/777777777777777/555555555555555/777777777777777-----------|
A|5555555555555555/777777777777777/555555555555555/777777777777777-----------|
E|3333333333333333/555555555555555/333333333333333/555555555555555-----------|

Chorus Pt. 3:

e|---------------------------------------------------------------------------|
B|---------------------------------------------------------------------------|
G|---------------------------------------------------------------------------|
D|----------------------------99999999-7777777-------------------------------| 
A|1010101010101010991010991010-----------------------------------------------|  
E|---------------------------------------------------------------------------|  
                                                                                  x2
e|---------------------------------------------------------------------------| 
B|---------------------------------------------------------------------------|
G|---------------------------------------------------------------------------|
D|----------------------------999991099-77777977-----------------------------|
A|1010101010101010991010991010-----------------------------------------------|
E|---------------------------------------------------------------------------|

Chorus Pt. 4:

e|---------------------------------------------------------------------------|
B|--------------------------------1111111111111111-9999999-------------------|
G|12121212121212121111121211111212xxxxxxxx---------xxxxxxx-------------------|
D|xxxxxxxxxxxxxxxxxxxxxxxxxxxxxxxx9-9-9-9-9-9-9-9--7777777-------------------|
A|10101010101010109-9-10109-9-1010-------------------------------------------|
E|---------------------------------------------------------------------------|

e|---------------------------------------------------------------------------|
B|--------------------------------12121212121212121312121010101010121010-----|
G|12121212121212121111121211111212x-x-x-x-x-x-x-x-xxx-x-x-x-x-x-x-x-x-x------|
D|xxxxxxxxxxxxxxxxxxxxxxxxxxxxxxxx9-9-9-9-9-9-9-9-109-9-7-7-7-7-7-9-7-7------|
A|10101010101010109-9-10109-9-1010-------------------------------------------|
E|---------------------------------------------------------------------------|
Chorus Pt. 1
e|---------------------------------------------------------------------------|
B|---------------------------------------------------------------------------|
G|9--------------------------------------------------------------------------|x32
D|10-------------------------------------------------------------------------|
A|x--------------------------------------------------------------------------|
E|8--------------------------------------------------------------------------|

e|---------------------------------------------------------------------------|
B|---------------------------------------------------------------------------|
G|9--------------------------------------------------------------------------|x32
D|10-------------------------------------------------------------------------|
A|x--------------------------------------------------------------------------|
E|9--------------------------------------------------------------------------|

e|---------------------------------------------------------------------------|
B|---------------------------------------------------------------------------|
G|9--------------------------------------------------------------------------|x32
D|10-------------------------------------------------------------------------|
A|x--------------------------------------------------------------------------|
E|8--------------------------------------------------------------------------|

Post-Chorus:

e|---------------------------------------------------------------------------|
B|---------------------------------------------------------------------------|
G|---------------------------------------------------------------------------|
D|---------------------------------------------------------------------------|
A|101099--101099--101099101099--101099---------------------------------------|
E|------10------10------------10------10-------------------------------------|

Interlude Pt.1:

e|--121212121212--12121212------12-------------------------------------------|
B|--121212121212--12121212------12-------------------------------------------|
G|--121212121212--11111111h12p1111-------------------------------------------|
D|------------------------------12-------------------------------------------|
A|---------------------------------------------------------------------------|
E|0--------------------------------------------------------------------------|   \
                                                                                  x3
e|--121212121212--12121212------12-------------------------------------------|  
B|--121212121212--12121212------12-------------------------------------------| 
G|--121212121212--11111111h12p1111-------------------------------------------|
D|----------------12121212------12-------------------------------------------|
A|---------------------------------------------------------------------------|
E|0--------------------------------------------------------------------------|
ON 4TH TIME GO TO
e|--121212121212--12121212------12-------------------------------------------|
B|--121212121212--12121212------12-------------------------------------------|
G|--121212121212--11111111h12p1111-------------------------------------------|
D|------------------------------12-------------------------------------------|
A|---------------------------------------------------------------------------|
E|0--------------------------------------------------------------------------|

e|--121212121212--15151515151515---------------------------------------------|
B|--121212121212--12121212121212---------------------------------------------|
G|--121212121212--12121212121212---------------------------------------------|
D|---------------------------------------------------------------------------|
A|---------------------------------------------------------------------------|
E|0--------------------------------------------------------------------------|
Chorus Pt. 1
e|---------------------------------------------------------------------------|
B|---------------------------------------------------------------------------|
G|9--------------------------------------------------------------------------|x32
D|10-------------------------------------------------------------------------|
A|x--------------------------------------------------------------------------|
E|8--------------------------------------------------------------------------|

e|---------------------------------------------------------------------------|
B|---------------------------------------------------------------------------|
G|9--------------------------------------------------------------------------|x32
D|10-------------------------------------------------------------------------|
A|x--------------------------------------------------------------------------|
E|9--------------------------------------------------------------------------|

e|---------------------------------------------------------------------------|
B|---------------------------------------------------------------------------|
G|9--------------------------------------------------------------------------|x32
D|10-------------------------------------------------------------------------|
A|x--------------------------------------------------------------------------|
E|8--------------------------------------------------------------------------|

Post-Chorus 2:

e|-----------------------------------------------------------------------------------------|
B|-----------------------------------------------------------------------------------------|
G|-----------------------------------------------------------------------------------------|
D|-----------------------------------------------------------------------------------------|
A|101099--101099--101099101099--101099--101099101099--101099--101099101099--101099--10109--|
E|------10------10------------10------10------------10------10------------10------10-------|

Chorus Pt. 3:

e|---------------------------------------------------------------------------|
B|---------------------------------------------------------------------------|
G|---------------------------------------------------------------------------|
D|----------------------------99999999-7777777-------------------------------|
A|1010101010101010991010991010-----------------------------------------------|  
E|---------------------------------------------------------------------------|

e|---------------------------------------------------------------------------| 
B|---------------------------------------------------------------------------|
G|---------------------------------------------------------------------------|
D|----------------------------999991099-77777977-----------------------------|
A|1010101010101010991010991010-----------------------------------------------|
E|---------------------------------------------------------------------------|

Chorus Pt. 4:

e|---------------------------------------------------------------------------|
B|--------------------------------1111111111111111-9999999-------------------|
G|12121212121212121111121211111212xxxxxxxx---------xxxxxxx-------------------|
D|xxxxxxxxxxxxxxxxxxxxxxxxxxxxxxxx9-9-9-9-9-9-9-9--7777777-------------------|
A|10101010101010109-9-10109-9-1010-------------------------------------------|
E|---------------------------------------------------------------------------|

e|---------------------------------------------------------------------------|
B|---------------------------------------------------------------------------|
G|12121212121212121111121211111212-------------------------------------------|
D|xxxxxxxxxxxxxxxxxxxxxxxxxxxxxxxx12-----------------------------------------|
A|10101010101010109-9-10109-9-1010xx-----------------------------------------|
E|--------------------------------10-----------------------------------------|

Ending:

e|---------------------------------------------------------------------------|
B|---------------------------------------------------------------------------|
G|9-9--9-9--9-9--9-9--9-9--9-9-----------------------------------------------|
D|1010-1010-1010-1010-1010-1010----------------------------------------------|
A|x-x--x-x--x-x--x-x--x-x--x-x-----------------------------------------------|
E|8-8--8-8--8-8--8-8--8-8--8-8-----------------------------------------------|

This is my first tab, and I think the other version of this was wrong in some places.

| /  slide up
| \  slide down
| h  hammer-on
| p  pull-off
| ~  vibrato
| +  harmonic
| x  Mute note
===============================================================================





Comments


Popular We Are Scientists tabs & chords
It's A Hit Bass Tabs
Nobody Move Nobody Get Hurt 2 Bass Tabs
This Scene Is Dead Bass Tabs
After Hours 2 Chords
After Hours 3 Chords
Rules Dont Stop 1 Chords
I Don’T Bite 1 Tabs
Nice Guys Tabs
Scene Is Dead Tabs
Whats The Word 1 Tabs


Song lyrics



↑ Back to top | Tablatures and chords are parodies/interpretations of the original songs. You may use it for private study, scholarship, research or language learning purposes only
© 2014 AZChords.com Contact us | Privacy policy | DMCA | Add/correct tabs | Request tabs | Top 50 tabs