» » »

We Are Scientists, History Repeats Tabs (ver.1)

Artists:  A B C D E F G H I J K L M N O P Q R S T U V W X Y Z # 

History Repeats Tabs (ver.1)

We Are Scientists Tabs
 Rating:
4/5 (5 votes)
History Repeats lessons Tabs too difficult? Try these video lessons and learn fast
1
                -----------------------------------------------------------------------------|History 
- We Are Scientists
-----------------------------------------------------------------------------|

Tuning:

Intro:
e|-------------------------------------------------------------------------|
B|--8-8-(x)(x)-10-10-------------------------------------------------------|
G|--9-9-(x)(x)-9--9--------------------------------------------------------|
D|-------------------------------------------------------------------------|
A|-------------------------------------------------------------------------|
E|-------------------------------------------------------------------------|

Chorus:
e|-------------------------------------------------------------------------|
B|-------------------------------------------------------------------------|
G|-3----(x20)--5-----(x20)--3----(x20)-------------------------------------|
D|-1-----------3------------1----------3---(x15)----5---(x15)--------------|
A|-2-----------4------------2----------3------------5----------------------|
E|-------------------------------------1------------3----------------------|
                                    \    Play twice         /

Post-Chrous:
e|-------------------------------------------------------------------------|
B|-------------------------------------------------------------------------|
G|-------------------------------------------------------------------------|
D|-442200--442200--4422----------------------------------------------------|
A|-------------------------------------------------------------------------|
E|-------------------------------------------------------------------------|

Verse:
e|-------------------------------------------------------------------------|
B|-------------------------------------------------------------------------|
G|-------------------------------------------------------------------------|
D|---------------------------------99999999-77777777----99999109-7777787---|
A|--1010101010101010-991010991010------------------------------------------|
E|-------------------------------------------------------------------------|
                                   \every second time/ \play this instead/
2nd Chorus
e|-------------------------------------------------------------------------|
B|-------------------------------------------------------------------------|
G|--3---------5---------3--------------------------------------------------|
D|--1---(x20)-3--(x20)--1---(x20)------------------------------------------|
A|--2---------4---------2--------------------------------------------------|
E|-------------------------------------------------------------------------|

Interlude:
e|------12--10-10-10p8h10--------------------------------------------------|
B|------11--9--9--9-p8h9---------------------------------------------------|
G|------10--8--8--8-p8h8---------------------------------------------------|
D|-------------------------------------------------------------------------|
A|-------------------------------------------------------------------------|
E|-00----------------------------------------------------------------------|
       
  Outro
e|-----------------------------------------------------------|
B|-----------------------------------------------------------|
G|-----------------------------------------------------------|
D|--------------------------------10-10--10-10--10-10--1010\-|
A|1010101010101010-991010991010---8--8---8--8---8--8----8-8\-|
E|--------------------------------9--9---9--9---9--9----9-9\-|

Song structure:
Intro x28
Chorus
Verse x3
Chorus 2
Post-Chorus x3
Interlude x8
2nd Chorus
Post-Chorus x3
Verse
Outro

| /  slide up
| \  slide down
| h  hammer-on
| p  pull-off
| ~  vibrato
| +  harmonic
| x  Mute note
| () Ghost note
============================================================================
            
Submit corrections

comments powered by Disqus
↑ Back to top | We Are Scientists Tabs for History Repeats. Lyrics for acoustic guitar and electric guitar. 1 Tablatures and chords are parodies/interpretations of the original songs. You may use it for private study, scholarship, research or language learning purposes only