» » »

Chick Lit Tabs (ver.2)

Artists:  A B C D E F G H I J K L M N O P Q R S T U V W X Y Z # 

Chick Lit Tabs (ver.2)

We Are Scientists
Rating:
0/5 (0 votes)

Tabs too difficult? Try these video lessons and learn fast.
                -------------------------------------------------------------------------------
                             We Are Scientists - Chick Lit
-------------------------------------------------------------------------------

Tuning: Standard EADBGe

Intro
e|---------------------------------------------|
B|---------------------------------------------|
G|---------------------------------------------|
D|---------------------------------------------|
A|--------------5-5-5--------------------------|
E|--5-5-5-4-4-4-------4-4-4--------------------|

Intro pt 2 (Main riff) 
e|---------------------------------------------------------------------------|
B|---------------------------------------------------------------------------|
G|--2---2-2-2------2---2-2-2------2---2-2-2------2---2-2-2-------------------|
D|--4---4-4-4------4---4-4-4------4---4-4-4------4---4-4-4-------------------|
A|--4---4-4-4------4---4-4-4------4---4-4-4------4---4-4-4-------------------|
E|--2---2-2-2------2---2-2-2------2---2-2-2------2---2-2-2-------------------|

High Lick (used in intro and verse)
e|-----17------17------------------------------------------------------------|
B|---------16------16--14--16------------------------------------------------|
G|---------------------------------------------------------------------------|
D|---------------------------------------------------------------------------|
A|---------------------------------------------------------------------------|
E|---------------------------------------------------------------------------|

Verse
e|----------------------------------------------------------------------|
B|----------------------------------------------------------------------|
G|--2---2-2-2------2---2-2-2---------------------2---2-2-2--------------|
D|--4---4-4-4------4---4-4-4------2---2-2-2------4---4-4-4--------------| X2
A|--4---4-4-4------4---4-4-4------2---2-2-2------4---4-4-4--------------|
E|--2---2-2-2------2---2-2-2------0---0-0-0------2---2-2-2--------------|

Chorus

The Chords are E, F# and D just strummed out. When to change is obvious.

Chorus lick (played each time the Chords are repeated)
e|---------------------------------------------------------------------------|
B|---------------------------------------------------------------------------|
G|----------------16----------------16---------------------------------------|
D|-----16---14---------16---16--14-------------------------------------------|
A|---------------------------------------------------------------------------|
E|---------------------------------------------------------------------------|

Bridge
e|---------------------------------------------------------------------------|
B|---------------------------------------------------------------------------|
G|--------------------------2222222222222222---------------------------------|
D|--------------------------4444444444444444---------------------------------|
A|--------------5-5-5-------4444444444444444---------------------------------|
E|--5-5-5-4-4-4-------4-4-4-2222222222222222--------------------------------|




| /  slide up
| \  slide down
| h  hammer-on
| p  pull-off
| ~  vibrato
| +  harmonic
| x  Mute note
============================================================================
            
Tabs too difficult? Try these video lessons and learn fast.




comments powered by Disqus
↑ Back to top | Tablatures and chords are parodies/interpretations of the original songs. You may use it for private study, scholarship, research or language learning purposes only