» » »

We Are Scientists, Chick Lit Bass tabs (ver.1)

Artists:  A B C D E F G H I J K L M N O P Q R S T U V W X Y Z # 

Chick Lit Bass tabs (ver.1)

We Are Scientists Tabs
 Rating:
4.2/5 (5 votes)
Chick Lit lessons Tabs too difficult? Try these video lessons and learn fast
1
                Intro
G|---------------|
D|---------------|
A|--------555----|
E|555-444-----444|
Play the first part of the verse as the rest of the intro

Verse
G|--------------|
D|-44-44~-44-4-4|
A|--------------|
E|2--2---2--2---|X2

G|--------------|
D|-22-22~-22-2-2|
A|--------------|
E|0--0---0--0---|X1

G|--------------|
D|-44-44~-44-4-4|
A|--------------|
E|2--2---2--2---|X1

Chorus
This is played with 16th notes - play two notes for each on the tab and play them twice as fast.
G|----------------------------------------------------------------|
D|2222222244444444----------------2222222244444444--------77777777|
A|----------------5555555555555555----------------55555555--------|
E|----------------------------------------------------------------|

Break
G|----------------------------|
D|----------------------------|
A|--------555-----------------|
E|555-444-----444-555555555555|

On last time
G|-----------------------------|
D|-----------------------------|
A|--------555-------------444-7|
E|555-444-----444-555-777------|

Play first part of verse as outro.
            
Submit corrections

comments powered by Disqus
↑ Back to top | We Are Scientists Bass for Chick Lit. Lyrics for acoustic guitar and electric guitar. 1 Tablatures and chords are parodies/interpretations of the original songs. You may use it for private study, scholarship, research or language learning purposes only