» » »

Night Windows Bass tabs (ver.1)

Artists:  A B C D E F G H I J K L M N O P Q R S T U V W X Y Z # 

Night Windows Bass tabs (ver.1)

Weakerthans
Rating:
4/5 (3 votes)

Hard to play? Try these video lessons and learn fast.
                Band: The Weakerthans

He alternates between octaves quite a bit
Hopefully I’ve got it about right
Sorry, I know the timing isn’t done perfectly

Please rate

Intro (0:12)

G|------------------------------------------|
D|---12109----------------------------------| 
A|-10-----12109----14-----------------------| x2
E|--------------12----14-15-8-8-8-7-5-5-8-8-|

Verse: (0:29)

G|---------------------------------------|
D|------------------12-10-10-9-7-7-10-10-|
A|-10-10-10-9-7-7-7----------------------| x2
E|---------------------------------------|

G|------------------------------------------|
D|---12109--------------------------7-7-----| 
A|-10-----12109----14-----------------------| x2
E|--------------12----14-15-8-8-8-7-----8-8-|

Chorus: (1:04) x2

G|-7-7-7-7-7-7-7-7-5-5-5-5-5-5-5-5-|
D|---------------------------------| 
A|---------------------------------|
E|---------------------------------|

G|-----------------5-5-5-5-5-5-5-5-|
D|---------------------------------| 
A|-------------0-2-----------------|
E|-0-0-0-0-2-2---------------------|

Verse 2 (1:38):

G|-12-12-12-11-9-9-9-7-5-5-5-4-2-2-5-5-|
D|-------------------------------------| 
A|-------------------------------------|
E|-------------------------------------|

G|---------------------------------------|
D|------------------12-10-10-9-7-7-10-10-|
A|-10-10-10-9-7-7-7----------------------| x2
E|---------------------------------------|

G|-12-12-12-11-9-9-9-7-5-5-5-4-2-2-5-5-|
D|-------------------------------------| 
A|-------------------------------------|
E|-------------------------------------|

G|------------------------------------------|
D|---12109----------------------------------| 
A|-10-----12109----14-----------------------| x2
E|--------------12----14-15-8-8-8-7-5-5-8-8-|

Then Repeat

Chorus (2:29) x2

Pause

Bridge: (3:13)

G|------------------------------------------|
D|---12109--------------------------7-7-----| 
A|-10-----12109----14-----------------------| 
E|--------------12----14-15-8-8-8-7-----8-8-|

Bridge 2: (3:22)

G|-------------------------------------------------|
D|-------------------------------------------------| 
A|-10-10-10-10-12-12-12-12-14-14-14-14-15-15-15-15-| x 7
E|-------------------------------------------------|

Ending (4:21):

G|---191716------------|
D|-17------191716------| 
A|---------------19----| 
E|------------------0~-|
            
Hard to play? Try these video lessons and learn fast. | Correct




comments powered by Disqus
↑ Back to top | Tablatures and chords are parodies/interpretations of the original songs. You may use it for private study, scholarship, research or language learning purposes only