>
 >
Night Windows

Night Windows Guitar Tabs

Weakerthans - Night Windows chords, tabs, tablatures, lyrics

Guitar lessons | Add/correct | Request | Top 50 tabs Artists:  A B C D E F G H I J K L M N O P Q R S T U V W X Y Z 0-9

Night Windows Guitar Tabs – Weakerthans

CD, Sheet music, Poster

Do you like Night Windows? Share with your friends now
Bass TabsChordsTabsUkulele
Band:  The Weakerthans


Version 1.0 - 09/21/2007

.  - palm mute           /  - slide up to
\  - slide down to       ~  - vibrato
h  - hammer on           b  - Bend
p  - pull off            Suffixes for bend
t  - tap                 f  - full bend    h - half bend
ph - pinched harmonic    q  - quarter bend t - tap bend
*  - see comment         ^  - Hold bend    r release bend
x  - Stuccatto           ~  - vibrato bend
,  - slight palm mute    () - ghost note, sustained note
"  - tremolo note        <> - Trill

Tunning E A D G B E (standard)

Intro
Guitar1

|-------------------------------------------------------------------|
|----10-----10------------------------------------------------------|
|-----0------0------play 24x----------------------------------------|
|-------------------------------------------------------------------|
|--10-----10--------------------------------------------------------|
|-------------------------------------------------------------------|

Verse (4x)
Guitar1

|-------------------------------------------------------------------|
|----10-----10-----10----10-----8-----8-----8-----7-----------------|
|-----0------0------0-----0-----0-----0-----0-----0-----------------|
|-------------------------------------------------------------------|
|--10-----10-----10-----9----\7-----7-----7----\5-------------------|
|-------------------------------------------------------------------|

|-------------------------------------------------------------------|
|----5-----5-----5-----3-----2-----2-----1------1-----0-------------|
|----0-----0-----0-----0-----0-----0-----0------0-------------------|
|-------------------------------------------------------------------|
|-\3-----3-----3----\2-----0-----0-----3------3---------------------|
|-------------------------------------------------------------------|


Pre-Chorus (2x)
Guitar1

|--------10-------------10--------------10--------------10----------|
|--8---8----------8---8-----------8---8-----------8---8-------------|
|----7--------------7---------------9---------------9---------------|
|-------------------------------------------------------------------|
|-------------------------------------------------------------------|
|-------------------------------------------------------------------|


|-------------------------------------------------------------------|
|-(0)---------------1-----------------------------------------------|
|--0----------------0-----------------------------------------------|
|--2-------0--------2-----------------------------------------------|
|--2-------2--------3-----------------------------------------------|
|--0-------3--------------------------------------------------------|

Chorus
"..of night windows..
Guitar1 plays Verse Riff
Guitar2:

|-------------------------------------------------------------------3----|
|-------------------------------------------------------------------3----|
|-------------------------------------------------------------------0----|
|-----12-10-9--------------9-----------------------------------(2x)-0----|
|--10---------12-10-9---7-----9--10----\3--3--3--2--0--0--3--3------2----|
|-------------------------------------------------------------------3----|

(note: play this on a bass and you have the cool bassline from the intro/verse)



Variation After 2nd Chorus
Guitar1
Play Intro 16x
then

                        "But you're not...."
|-------------------------------------------------------------------|
|----12-----12-----12-----12-----10-----10----10-----10-------------|
|-----0------0------0------0------0------0-----0------0-------------|
|-------------------------------------------------------------------|
|---------10-----10-----10-----\9-----9------9------9---------------|
|-------------------------------------------------------------------|


|-------------------------------------------------------------------|
|-----7-----7------7------7-------5------5------5-------------------|
|-----0-----0------0------0-------0------0------0-------------------|
|-------------------------------------------------------------------|
|---------7------7------7------\3------3------3-------3-------------|
|-------------------------------------------------------------------|

Ending
Guitar1
|----------------12-------------------------------------------------|
|--12----12-15-----15-----------------------------------------------|
|-----14------------------------------------------------------------|
|-------------------------------------------------------------------|
|-------------------------------------------------------------------|
|-------------------------------------------------------------------|

END





Comments


Popular Weakerthans tabs & chords
Aside 1 Bass Tabs
Civil Twilight Chords
Last Last One Chords
Plea From A Cat Named Virtue Chords
Sympathetic Smile Chords
Watermark Chords
Exiles Among You Tabs
Farewell Faded Memory Ukulele
Manifest Ukulele
Sympathetic Smile Ukulele


Song lyrics



↑ Back to top | Tablatures and chords are parodies/interpretations of the original songs. You may use it for private study, scholarship, research or language learning purposes only
© 2014 AZChords.com Contact us | Privacy policy | DMCA | Add/correct tabs | Request tabs | Top 50 tabs