>
 >
King Of The Beach 1

King Of The Beach 1 Guitar Tabs

Wavves - King Of The Beach 1 chords, tabs, tablatures, lyrics

Guitar lessons | Add/correct | Request | Top 50 tabs Artists:  A B C D E F G H I J K L M N O P Q R S T U V W X Y Z 0-9

King Of The Beach 1 Guitar Tabs – Wavves

CD, Sheet music, Poster

Do you like King Of The Beach 1? Share with your friends now
Bass TabsChordsTabsTabs v2Ukulele
KING OF THE BEACH
INTRO               
E B B       |             
E B B       |x6
E B B       |               
C# C# G# G# |       
CHORUS
      C#        B     G#
E|-----------------------------------------------------------------------|
B|-----------------------------------------------------------------------|
G|--66666666-------------------------------------------------------------|
D|--66666666--7777--6666-------------------------------------------------|
A|--44444444--7777--6666-------------------------------------------------|
E|------------5555--4444-------------------------------------------------|
 
BRIDGE (NOT SURE IF THIS IS RIGHT)
E|---4--5--7--4--5--7--10--4--5--7--4--5--7-10------------------------|
B|---6--7--9--6--7--9--12--6--7--9--6--7--9-12------------------------|
G|---5--6--8--5--6--8--11--5--6--8--5--6--8--11------------------------|
D|---5--6--8--5--6--8--11--5--6--8--5--6--8--11-----------------------|
A|---------------------------------------------------------------------|
E|---------------------------------------------------------------------|
  
E|----------------------------------------------------------------|
B|----------------------------------------------------------------|
G|--9-------9-------99999999----------------99999999--------------|
D|--9-12-9-9-12-9-99999999-12121212-9999--99999999-12121212-9999|
A|--7-12-9-7-12-9 77777777-12121212-9999-77777777-12121212-9999|
E|----10-7----10-7-----------10101010-7777-----------10101010-7777|

OUTRO            
E B B       |              
E B B       |x4
E B B       |
C# C# G# G# |                                                      

E (LET RING)        
      





Comments


Popular Wavves tabs & chords
Linus Spacehead Bass Tabs
So Bored Chords
Weed Demon Chords
Beach Demon 1 Tabs
California Goths Tabs
Hula Hoop Tabs
Nine Is God Tabs
Satan Try To Stop Me Tabs
Summer Goth Tabs
Green Eyes Ukulele


Song lyrics



↑ Back to top | Tablatures and chords are parodies/interpretations of the original songs. You may use it for private study, scholarship, research or language learning purposes only
© 2014 AZChords.com Contact us | Privacy policy | DMCA | Add/correct tabs | Request tabs | Top 50 tabs