» » »

Wavves, King Of The Beach Tabs (ver.3)

Artists:  A B C D E F G H I J K L M N O P Q R S T U V W X Y Z # 

King Of The Beach Tabs (ver.3)

Wavves Tabs
 Rating:
4/5 (4 votes)
King Of The Beach lessons Tabs too difficult? Try these video lessons and learn fast
1
                KING OF THE BEACH
INTRO               
E B B       |             
E B B       |x6
E B B       |               
C# C# G# G# |       
CHORUS
      C#        B     G#
E|-----------------------------------------------------------------------|
B|-----------------------------------------------------------------------|
G|--66666666-------------------------------------------------------------|
D|--66666666--7777--6666-------------------------------------------------|
A|--44444444--7777--6666-------------------------------------------------|
E|------------5555--4444-------------------------------------------------|
 
BRIDGE (NOT SURE IF THIS IS RIGHT)
E|---4--5--7--4--5--7--10--4--5--7--4--5--7—-10------------------------|
B|---6--7--9--6--7--9--12--6--7--9--6--7--9—-12------------------------|
G|---5--6--8--5--6--8--11--5--6--8--5--6--8--11------------------------|
D|---5--6--8--5--6--8--11--5--6--8--5--6--8--11—-----------------------|
A|---------------------------------------------------------------------|
E|---------------------------------------------------------------------|
  
E|----------------------------------------------------------------|
B|----------------------------------------------------------------|
G|--9-------9-------99999999----------------99999999--------------|
D|--9-12-9—-9-12-9—-99999999-12121212-9999--99999999-12121212-9999|
A|--7-12-9—-7-12-9— 77777777-12121212-9999—-77777777-12121212-9999|
E|----10-7----10-7-----------10101010-7777-----------10101010-7777|

OUTRO            
E B B       |              
E B B       |x4
E B B       |
C# C# G# G# |                                                      

E (LET RING)        
      
            
Submit corrections

comments powered by Disqus
↑ Back to top | Wavves Tabs for King Of The Beach. Lyrics for acoustic guitar and electric guitar. 1 Tablatures and chords are parodies/interpretations of the original songs. You may use it for private study, scholarship, research or language learning purposes only