» » »

Wavves, King Of The Beach Bass tabs (ver.1)

Artists:  A B C D E F G H I J K L M N O P Q R S T U V W X Y Z # 

King Of The Beach Bass tabs (ver.1)

Wavves Tabs
 Rating:
4.2/5 (5 votes)
King Of The Beach lessons Tabs too difficult? Try these video lessons and learn fast
                                         Written by Nathan williams and the wavves
kicks in around 0:07

G---------          ------------------------------------|
D---------          ------------------------------------|
A--------- then to: ------------------------------------|
E--99/44--          -0-0-7-77--0-0-7-77-0-0-7-77--99/44-|

CCHORUS:
'Never gonna stop me..'
----------------------------------------------------------------|
----------------------------------------------------------------|
--4-44-44-2-22-----4-44-44-2-22-----4-44-44-2-22----4-44-44-2---|
---------------4-2--------------4-2--------------42-------------|

---------------------------------------------------------|
---------------------------------------------------------|
---------------------------------------------------------|
--------------------99/44----------------------99/44-----|


BACK TO VERSE:

G------------------------------------------|
D------------------------------------------|
A------------------------------------- X 4-|
E-0-0-7-77--0-0-7-77-0-0-7-77--99/44-------|

CHORUS:
'Never gonna stop me..'
----------------------------------------------------------------|
----------------------------------------------------------------|
--4-44-44-2-22-----4-44-44-2-22-----4-44-44-2-22----4-44-44-2---|
---------------4-2--------------4-2--------------42-------------|

D-------------------------------------------------------------------|
D-------------------------------------------------------------------|
A--33-55-77-1010-1010-1010-1010-1010-1010-1010-1010-1010-1010-1010--| X2
E-------------------------------------------------------------------|


---------  ----------------|
---------  ----------------|
---77-66-  ----------------|  X4
---------  0-00-000-10/77--|
BACCKK TO VVVERRSE:

'Never gonna stop me..'
G---------------------------------------|
D---------------------------------------|
A---------------------------------------|  X8
E-0-0-7-77--0-0-7-77-0-0-7-77--99/44----|

END:
G-----------------|
D-----------------|
A----1/17?--------|
E-0---------------|
            
Submit corrections

comments powered by Disqus
↑ Back to top | Wavves Bass for King Of The Beach. Lyrics for acoustic guitar and electric guitar. Tablatures and chords are parodies/interpretations of the original songs. You may use it for private study, scholarship, research or language learning purposes only