» » »

Late Home Tonight Tabs (ver.2)

Artists:  A B C D E F G H I J K L M N O P Q R S T U V W X Y Z # 

Late Home Tonight Tabs (ver.2)

Waters Roger
Rating:
0/5 (0 votes)

Tabs too difficult? Try these video lessons and learn fast.
                (PartOne)
Vince Tampio

Late Home Tonight (part I) - Roger Waters

No one has tabbed this, so I will.  I think it's a really cool and beautiful song.

Intro

e----------------------------------------------------------|
B------3-----3-------3-----3-------------------------------|
G----2---2-----2---2---2-----2-----4-----4-------4-----4---|
D----------4-------------4-------5---5-----5---5---5-----5-|
A--2-------------2---------------------5-------------5-----|
E------------------------------3-------------3-------------|

e-------------------------------------------0-----|
B------3-----3-------3-----3----------------0-----|
G----2---2-----2---2---2-----2-----4-----4--0-----|
D----------4-------------4-------5-----5----5-----|
A--2-------------2--------------------------5-----|
E------------------------------3-----2------3-----|


e----------------------------------------------------------|
B------3-----3-------3-----3-------------------------------|
G----2---2-----2---2---2-----2-----4-----4-------4-----4---|
D----------4-------------4-------5---5-----5---5---5-----5-|
A--2-------------2---------------------5-------------5-----|
E------------------------------3-------------3-------------|
   Standing...                  ...Farmer's...

e-------------------------------------------0-----|
B------3-----3-------3-----3----------------0-----|
G----2---2-----2---2---2-----2-----4-----4--0-----|
D----------4-------------4-------5-----5----5-----|
A--2-------------2--------------------------5-----|
E------------------------------3-----2------3-----|
  ...Glances...                   ...Phantom...    ...Wing

e----------------------------------------------------------|
B------3-----3-------3-----3-------2-----2-------2-----2---|
G----2---2-----2---2---2-----2---2---2-----2---2---2-----2-|
D----------2-------------2-------------2-------------2-----|
A------------------------------0-------------0-------------|
E--0-------------0-----------------------------------------|
...Sing...                        ...Ray...



e------------------------------------------------------------|
B------------------------------------------------------------|
G--------4-----4-------4-----4-------4-----4-------4-----4---|
D------4---4---------4---4---------5---5---------5---5-----5-|
A----2-------2-----2-------2-----5-------5-----5-------5-----|
E--2-------------2-------------3-------------3---------------|
    ...The...                     ...Dials...


e------------------------------------------------------------|
B------------------------------------------------------------|
G--------4-----4-------4-----4-------4-----4-------4-----4---|
D------4---4---------4---4---------5---5---------5---5-----5-|
A----2-------2-----2-------2-----5-------5-----5-------5-----|
E--2-------------2-------------3-------------3---------------|
    ...Secure...

e----------------------------------------------------------|
B------3-----3-------3-----3-------3-----3-------3-----3---|
G----2---2-----2---2---2-----2---2---2-----2---2---2-----2-|
D----------2-------------2-------------2-------------2-----|
A----------------------------------------------------------|
E--0-------------0-------------0-------------0-------------|
        ...There...               ...Tin...         ...White...

e----------------------------------------------------------|
B------3-----3-------3-----3-------2-----2-------2-----2---|
G----2---2-----2---2---2-----2---2---2-----2---2---2-----2-|
D----------2-------------2-------------2-------------2-----|
A------------------------------0-------------0-------------|
E--0-------------0-----------------------------------------|
  ...Flight...      ...Flight...      ...Flight...

e----------------------------------------------------------|
B------3-----3-------3-----3-------2-----2-------2-----2---|
G----2---2-----2---2---2-----2---2---2-----2---2---2-----2-|
D----------2-------------2-------------2-------------2-----|
A--0-------------0-------------0-------------0-------------|
E----------------------------------------------------------|
                ...Military...    ...Questions...

Break

Chorus - repeat 3 times

e----------------------------------------------------------|
B------3-----3-------3-----3-------3-----3-------3-----3---|
G----2---2-----2---2---2-----2---2---2-----2---2---2-----2-|
D--0-------0-----0-------0-------------4-------------4-----|
A------------------------------2-------------2-------------|
E----------------------------------------------------------|

e----------------------------------------------------------|
B------2-----2-------2-----2-------2-----2-------2-----2---|
G----2---2-----2---2---2-----2---2---2-----2---2---2-----2-|
D----------2-------------2-------------2-------------2-----|
A--0-------------0-------------0-------------0-------------|
E----------------------------------------------------------|

e-----       -------------------------------|
B--3--       ------3-----3-------3-----3----|
G--2--       ----2---2-----2---2---2-----2--|
D--0-- Break ----------4-------------4------|
A--0--       --2-------------2--------------|
E-----       -------------------------------|
  ...TV

e---------------0-----|
B---------------0-----|
G------4-----4--0-----|
D----5-----5----5-----|  Break
A---------------5-----|
E--3-----2------3-----|

e------------------------------------------------------------|
B------------------------------------------------------------|
G--------4-----4-------4-----4-------4-----4-------4-----4---|
D------4---4---------4---4---------5---5---------5---5-----5-|
A----2-------2-----2-------2-----5-------5-----5-------5-----|
E--2-------------2-------------3-------------3---------------|
  ...Tripoli...                      ...another...

e----------------------------------------------------------|
B------3-----3-------3-----3-------2-----2-------2-----2---|
G----2---2-----2---2---2-----2---2---2-----2---2---2-----2-|
D----------2-------------2-------------2-------------2-----|
A------------------------------0-------------0-------------|
E--0-------------0-----------------------------------------|
  ...Stairs...                    ...Time...


e-----------------|
B—3---------------|
G--2--------------|
D--2--------------|
A--0--------------|
E-----------------|
  ...Street below

Then all that drums and sound effects followed by a large explosion.  Nice...
            
Tabs too difficult? Try these video lessons and learn fast.




comments powered by Disqus
↑ Back to top | Tablatures and chords are parodies/interpretations of the original songs. You may use it for private study, scholarship, research or language learning purposes only