» » »

Late Home Tonight Tabs (ver.1)

Artists:  A B C D E F G H I J K L M N O P Q R S T U V W X Y Z # 

Late Home Tonight Tabs (ver.1)

Waters Roger
Rating:
0/5 (0 votes)

Hard to play? Try these video lessons and learn fast.
                (PartTwo)
Roger Waters - LATE HOME TONIGHT (PART TWO)


    D                           Em7 
e-|-2----------------------------0-----------------------------------|
B-|-3----------------------------3-----------------------------------|
G-|-2----------------------------0-----------------------------------|
D-|-0----------------------------2-----------------------------------|
A-|-0----------------------------2-----------------------------------|
E-|------------------------------0-----------------------------------|
   Hark, the wire service sing     clear the satellite link      check 

                      A7
e-|------------------0-----------------------------------------------|
B-|------------------2-----------------------------------------------|
G-|------------------0-----------------2-----------------------------|
D-|------------------2-----------------------------------------------|
A-|------------------0-----------------------------------------------|
E-|------------------------------------------------------------------|
   the fax machine       hold the lead story, boys, there's some great 

             D
e-|----------------------------2-------------------------------------|
B-|----------------------------3-------------------------------------|
G-|--0------0------------------2-----------------------------------2-|
D-|----------------4-----------0-------------------------------------|
A-|----------------------------0-------------------------------------|
E-|------------------------------------------------------------------|
   pictures coming in.           Now the pilot's heartbeat slows,

    Em7                                                     A7
e-|-0-------------------------------------------------------0--------|
B-|-3-------------------------------------------------------2--------|
G-|-0-------------------------------------------------------0--------|
D-|-2-------------------------------------------------------2--------|
A-|-2-------------------------------------------------------0--------|
E-|------------------------------------------------------------------|
      palms dry out,   no questions, only orders    and the F-1 glides 


e-|------------------------------------------------------------------|
B-|------------------------------------------------------------------|
G-|-----------------------------------------------------0------------|
D-|------------------------------------------------------------------|
A-|------------------------------------------------------------------|
E-|------------------------------------------------------------------|
   in nose-up through the cloudbase and the ground crew cheers as he 

                  D                   Bb                F
e-|---------------2-------------------1-------6---------1------------|
B-|---------------3-------------------3-----------3-----1--------2-3-|
G-|---------------2-------------------3-----------------2------------|
D-|---------------0-------------------3-----------------3------------|
A-|---------------0-------------------1-----------------3------------|
E-|-----------------------------------1-----------------1------------|
   puts down his landing gear.        Hey boy, you're a hero 

   Eb               D7          G            C                  A
e-|-3--------------------------3-------------0------------------0----|
B-|-4-----------------3-2------3-------------1----------0---2---2----|
G-|-3---------------------3-2--0-------------0------------------2----|
D-|-5--------------------------0-------------2------------------2----|
A-|----------------------------2-------------3------------------0----|
E-|----------------------------3-------------0-----------------------|
     take this cigar,           back home in Cleveland, all the papers 

                                                  D
e-|-----------------------------------------------2------------------|
B-|-----------------------------------------------3------------------|
G-|-----------------------------------------------2------------------|
D-|-----------------------------------------------0------------------|
A-|-----------------------------------------------0------------------|
E-|------------------------------------------------------------------|
   and the local TV stations will be calling your ma.         And the 
 
    Em7                                                    A7
e-|-0----------------------------------------------------------------|
B-|-3------------------------------------------------------2---------|
G-|-0------------------------------------------------------0---------|
D-|-2----------------------------------------0-------------2---------|
A-|-2--------------------------------------------4----2----0---------|
E-|-0------------------------------------------------------0---------|
   farmer's wife shoos the cat off the chair.    She says 'sit down my 


e-|------------------------------------------------------------------|
B-|------------------------------------------------------------------|
G-|------------------------------------------------------------------|
D-|---------------------------------------------------2--------------|
A-|------------------------------------------------------------------|
E-|------------------------------------------------------------------|
   dear was the milking all right, our American friends are late home 

       D
e-|----2-------------------------------------------------------------|
B-|----3-------------------------------------------------------------|
G-|----2-------------------------------------------------------------|
D-|----0-------------------------------------------------------------|
A-|----0-------------------------------------------------------------|
E-|----0-------------------------------------------------------------|
   tonight.'
            
Hard to play? Try these video lessons and learn fast. | Correct




comments powered by Disqus
↑ Back to top | Tablatures and chords are parodies/interpretations of the original songs. You may use it for private study, scholarship, research or language learning purposes only