>
 >
All Uncovered

All Uncovered Guitar Tabs

Watchmen - All Uncovered chords, tabs, tablatures, lyrics

Guitar lessons | Add/correct | Request | Top 50 tabs Artists:  A B C D E F G H I J K L M N O P Q R S T U V W X Y Z 0-9

All Uncovered Guitar Tabs – Watchmen

CD, Sheet music, Poster

Do you like All Uncovered? Share with your friends now
Bass TabsTabsTabs v2
----------------------------------------------------------------------------
                    All Uncovered - The Watchmen
----------------------------------------------------------------------------

Tuning: EADGBe


*Please listen to the song for timing and strum patterns, it's hard to get 
across on a txt file.  I also broke it down into sections to make it
easier to read.


VERSES:


e|---------------------------------------------|
B|--9--9--9--10p9------------------------------|
G|--9--9--9--------11p9----------------13--13--|
D|--9--------------------11p9--11--11--11--11--|
A|-----------------------------9---9---9---9---|
E|---------------------------------------------|


Repeat that a few times (listen to song for strum pattern and timings),
and these are the chords after:


e|-----------------------------------------------|
B|-----------------------------------------------|
G|--9---9-9-9-9---9--9/14-14---14-14-14-14---14--|
D|--9---9-9-9-9---9--9/14-14---14-14-14-14---14--|
A|--7---7-7-7-7---7--7/12-12---12-12-12-12---12--|
E|-----------------------------------------------|


Part before chorus:


e|-----------------------------------------------|
B|-----------------------------------------------|
G|--9---9-9-9-9---9--9/14-14---14-14-14-14---14--|
D|--9---9-9-9-9---9--9/14-14---14-14-14-14---14--|
A|--7---7-7-7-7---7--7/12-12---12-12-12-12---12--|
E|-----------------------------------------------|

e|----------------------------------------|
B|----------------------------------------|
G|--9---9-9-9-9---9--9--7---7-7-7-7--7-7--|
D|--9---9-9-9-9---9--9--7---7-7-7-7--7-7--|
A|--7---7-7-7-7---7--7--5---5-5-5-5--5-5--|
E|----------------------------------------|


CHORUS:

e|--------------------------------------------------|
B|--------------------------------------------------|
G|--14--14--14--14--14--14--14--14--14--14--14--14--|
D|--14--14--14--14--14--14--14--14--14--14--14--14--|
A|--12--12--12--12--12--12--11--11--11--11--11--11--|
E|--------------------------------------------------|


e|--------------------------------------------|
B|--------------------------------------------|
G|--------------------------------------------|
D|--11--11--11--11--11--11--9--9--9--9--9--9--|
A|--11--11--11--11--11--11--9--9--9--9--9--9--|
E|--9---9---9---9---9---9---7--7--7--7--7--7--|


*Keep strumming the E5 chord right before he sings "Is that just the way..."
and then this:


e|-----5-5-----5-5-----5-5-----5--5--|
B|-----5-5-----5-5-----5-5-----5--5--|
G|------------------7-------7--------|
D|--9-------9-------7-------7--------|
A|--7-------7-------5-------5--------|
E|--5-------5-------5-------5--------|


SOLO:


e|--17p14------------------------------------------------------------|
B|---------17p14-----------------------------------------------------|
G|----------------16p14------14------16b18r14------14~~--------------|
D|-----------------------16------16------------16--------16--16--16--|
A|-------------------------------------------------------------------|
E|-------------------------------------------------------------------|


e|------------------------------------------------------|
B|------------------------------------------------------|
G|--14-----14------14------14--16--14------14--14--14\--|
D|--14h16--14--16--14--16--14--16--14--16--14--14--14\--|
A|------------------------------------------------------|
E|------------------------------------------------------|


e|---------17~~------17--19--19b21r17------17~~--17--|
B|--17h19--------19--------------------19------------|
G|---------------------------------------------------|
D|---------------------------------------------------|
A|---------------------------------------------------|
E|---------------------------------------------------|


e|--19p17---------------------------------------------|
B|---------19p17---------------------------17---------|
G|----------------18p16--14------14-16b18======r14~~--|
D|---------------------------16-----------------------|
A|----------------------------------------------------|
E|----------------------------------------------------|


e|---------------------------------------|
B|---------------------------------------|
G|-------2~~~~------2--4--4b6r2-----2~~--|
D|--2h4----------4---------------4-------|
A|---------------------------------------|
E|---------------------------------------|



************************************

| /   slide up
| \   slide down
| h   hammer-on
| p   pull-off
| ~   vibrato
| +   harmonic
| x   Mute note
| b   Bend
| pb  Pre-bend
| br  Bend release
| pbr Pre-bend release
| brb Bend release bend

************************************





Comments


Popular Watchmen tabs & chords
All Uncovered Bass Tabs
Stereo 1 Bass Tabs
Doit Chords
Kill The Day Chords
All Uncovered 1 Tabs
Boneyard Tree Tabs
Middle East 1 Tabs
Silent Radar Tabs
Kill The Day Ukulele
Stereo Ukulele


Song lyrics



↑ Back to top | Tablatures and chords are parodies/interpretations of the original songs. You may use it for private study, scholarship, research or language learning purposes only
© 2014 AZChords.com Contact us | Privacy policy | DMCA | Add/correct tabs | Request tabs | Top 50 tabs