» » »

All Uncovered Bass tabs (ver.1)

Artists:  A B C D E F G H I J K L M N O P Q R S T U V W X Y Z # 

All Uncovered Bass tabs (ver.1)

Watchmen
Rating:
0/5 (0 votes)

Hard to play? Try these video lessons and learn fast.
                Intro:

G -----------------------------------------------------------------|
D ----11--------11-------------------------------------------------|
A -9-------9-9------9----------------------------------------------| x4
E -----------------------------------------------------------------|

Verse:

G -----------------------------------------------------------------|
D -----14--------14--------11------11------------------------------|
A -12------12-12-----12-9------9-9----9----------------------------| x3
E -----------------------------------------------------------------|

G ------------------------------------------------------------------|
D ----9------------7-----7------------------------------------------|
A -7----7-7-9--7-5----5-5----5--------------------------------------|
E ------------------------------------------------------------------|
(Repeat the last measure in the Verse before going to Bridge/Chorus)

Bridge:

G -----------------------------------------------------------------|
D -----------------------------------------------------------------|
A -0--0--0--0--0--0--4--4--4--4--4--4--5--5--5--5--5--5--2--2--2---|
E -----------------------------------------------------------------|

G -----------------------------------------------------------------|
D -----------------------------------------------------------------|
A -2--2--2--0--0--0--0--0--0--4--4--4--4--4--4--5--5--5--5--5--5---|
E -----------------------------------------------------------------|

G -----------------------------------------------------------------|
D -----------------------------------------------------------------|
A -----------------------------------------------------------------|
E -0--0-0--0--0-0--0--0-0--0--0-0----------------------------------|

Prechorus:

G -----------------------------------------------------------------|
D -----------------------------------------------------------------|
A -----------------------------------------------------------------| x3
E -0--0-0--0--0-0--0--0-0--0--0-0----------------------------------|

Chorus:

G -----------------------------------------------------------------|
D -----------------------------------------------------------------|
A -0---0--2--4--5---5--4--2----------------------------------------|
E -----------------------------------------------------------------|

Guitar Solo:

G -----------------------------------------------------------------|
D -----------------------------------------------------------------|
A -0---0--0--2--4--------------------------------------------------| x3
E -----------------2---2--2--0-2-----------------------------------|

G -----------------------------------------------------------------|
D -----------------------------------------------------------------|
A --------------2--4--5---5-5--5-5-5-------------------------------| x2
E -0---0--0--0-----------------------------------------------------|

Song Order:

Intro x1

Verse x4
Bridge x1

Verse x2
Bridge x1

Prechorus x1
Chorus x8

Guitar Solo x1

Verse x1

Chorus x8
            
Hard to play? Try these video lessons and learn fast. | Correct




comments powered by Disqus
↑ Back to top | Tablatures and chords are parodies/interpretations of the original songs. You may use it for private study, scholarship, research or language learning purposes only