>
 >
Inside The Electric Circus 1

Inside The Electric Circus 1 Guitar Tabs

W.A.S.P. - Inside The Electric Circus 1 chords, tabs, tablatures, lyrics

Guitar lessons | Add/correct | Request | Top 50 tabs Artists:  A B C D E F G H I J K L M N O P Q R S T U V W X Y Z 0-9

Inside The Electric Circus 1 Guitar Tabs – W.A.S.P.

CD, Sheet music, Poster

Do you like Inside The Electric Circus 1? Share with your friends now
TabsTabs v2
-------------------------------------------------------------------------------
                             SONG NAME - Band Name
-------------------------------------------------------------------------------

Tuning: eb Bb Gb Db Ab Db

intro:
e|------------------------------------------------------------|
B|------------------------------------------------------------|
G|------------------------------------------------------------|
D|-4-4------------4-4------------4-4----4-4----4-4----4-4-----|
A|-4-4------------4-4------------4-4----4-4----4-4----4-4-----|
E|-2-2------------2-2------------2-2----2-2----2-2----2-2-----|
-|
e|------------------------------------------------------------|
B|------------------------------------------------------------|
G|------------------------------------------------------------|
D|-4-4------------4-4------------4-4----4-4----4-4----4-4-----|
A|-4-44444444444444-44444444444444-444444-444444-444444-44444-|
E|-2-22222222222222-22222222222222-222222-222222-222222-22222-|
      xxxxxxxxxxxx   xxxxxxxxxxxx   xxxx   xxxx   xxxx   xxxx

riff 1:
 |x1 | x4           |
e|---|--------------|
B|---|--------------|
G|---|--------------|
D|-4-|-4------------|
A|-4-|-4------------|
E|-2-|-2------------|
-|   |              |
e|---|--------------|
B|---|--------------|
G|---|--------------|
D|---|-4---2---4--2-|
A|---|-4---2---4--2-|
E|---|---2---2------|

verse:
e|------------------|
B|------------------|
G|------------------|
D|-4----------------|
A|-4444444444444444-|
E|-2222222222222222-|
-| xxxxxxxxxxxxxxx  |
e|------------------|
B|------------------|
G|------------------|
D|-4---2---4--2-----|
A|-4---2---4--2-----|
E|---2---2----------|
                
verse part 2:
e|----------------|
B|----------------|
G|----------------|
D|-2-------2---2--|
A|-2-------2---2--|
E|-0-------0---0--|
-|                |
e|----------------|
B|----------------|
G|----------------|
D|-2-------2---2--|
A|-2-------2---2--|
E|-0-------0---0--|

pre-chorus:
e|----------------------------------------|
B|----------------------------------------|
G|----------------------------------------|
D|-12-------12-12-12-12---0h2-----2-------|
A|-12-------12-12-12-12---0h2-----2-------|
E|-10-------10-10-10-10-------------------|
-|                                        |
e|----------------------------------------|
B|----------------------------------------|
G|----------------------------------------|
D|-12-------12-12-12-12---2-------2-2-2---|
A|-12-------12-12-12-12---2-------2-2-2---|
E|-10---------------------0---------------|

chorus:
e|----------------------------------------------------------------|
B|----------------------------------------------------------------|
G|---------------------------------2---------------4-4---4--4-----|
D|-4---------------4---------------2---------------4-4---4--4-----|
A|-4---------------4---------------0---------------2-2---2--2-----|
E|-2---------------2----------------------------------------------|
-|
e|----------------------------------------------------------------|
B|----------------------------------------------------------------|
G|-------------------------------------------------4-4-2-4--4-4-4-|
D|-2h4-4-2h4-------2-4-4-2h4-------22222222222222224-4-2-4--4-4-4-|
A|-2h4-4-2h444444442h4-4-2h444444440000000000000000---------------|
E|----------2222222---------2222222-------------------------------|

(Solo coming soon!)

outro:
e|---------------------------------------------------------------|
B|---------------------------------------------------------------|
G|---------------------------------------------------------------|
D|-4-4----4-4----4-----------------------------------------------|
A|-4-4----4-4----4-------------------------------------------4-4-|
E|-2-2----2-2----2-------------------------------------------2-2-|
-|                                                               |
e|---------------------------------------------------------------|
B|---------------------------------------------------------------|
G|---------------------------------------------------------------|
D|-4-4----4-4------------------------------------------------4-4-|
A|-4-4----4-4----444-222-000-----------444-222-000-----------4-4-|
E|-2-2----2-2----------------444-22-00-------------444-22-00-2-2-|

Order:
intro x1
riff 1 x1
verse x4
verse part 2 x1
verse x2
pre-chorus x1
chorus x2
verse x4
verse part 2 x1
verse x2
pre-chorus x1
chorus x2
guitar solo
chorus x4


| /  slide up
| \  slide down
| h  hammer-on
| p  pull-off
| ~  vibrato
| +  harmonic
| x  Mute note
===============================================================================





Comments


Popular W.A.S.P. tabs & chords
I Wanna Be Somebody Bass Tabs
Breathe Chords
Love Machine Chords
Shoot From The Hip Chords
Wild Child Chords
Animal (Fuck Like A Beast) Tabs
Arena Of Pleasure Tabs
Keep Holding On Tabs
School Daze Tabs
Hallowed Ground Ukulele


Song lyrics



↑ Back to top | Tablatures and chords are parodies/interpretations of the original songs. You may use it for private study, scholarship, research or language learning purposes only
© 2014 AZChords.com Contact us | Privacy policy | DMCA | Add/correct tabs | Request tabs | Top 50 tabs