» » »

W.A.S.P., Wild Child Bass tabs (ver.1)

Artists:  A B C D E F G H I J K L M N O P Q R S T U V W X Y Z # 

Wild Child Bass tabs (ver.1)

W.A.S.P. Tabs
Rating:
0/5 (0 votes)
Hard to play? Try these video lessons and learn fast.
                W.A.S.P. - Wild Child

Standerd Tuning

The Bass Follows the drums for most of the song

Intro
|----------------------|
|----------------------|
|------4----1----------|
|-1--------------1-----|


Verse
|-------------------------------------------------|
|-------------------------------------------------|
|-----------------4444-44-4444-44-1111-11-1111-11-|
|-1111-11-1111-11---------------------------------|

|-------------------------------------------------|
|-------------------------------------------------|
|-------------4-6-----------------4444-44-4444-44-|
|-1111-11-111-----1111-11-1111-11-----------------|

|-------------------------------------------------|
|-------------------------------------------------|
|-1111-11-1111-11--------------4-6--444444-666666-|
|-----------------1111-11-111---------------------|

|----------------------------------|
|----------------------------------|
|------------444444-666666-333333--|
|-1111111111-----------------------|


Chorus
|---------------------------------------------------|
|---------------------------------------------------|
|-----------444444-666666------------4444444-111111-|
|-111111111---------------1111111111----------------|

|---------------------------------------------------|
|---------------------------------------------------|
|-----------444444-666666------------4444444-111111-|
|-111111111---------------1111111111----------------|

|-------------------------|
|-------------------------|
|-------------------------|
|-111-111-111-111-111-111-|


Play The Verse
Play The Chorus


Solo
|----------------------------------------------------|
|----------------------------------------------------|
|----------------------------------------------------|
|-11111111111111111111111111111111111111111111111111-| (Repeat following drums untill chours)


Play The Chorus


Outro
|----------------------------------------------------|
|----------------------------------------------------|
|----------------------------------------------------|
|-11111111111111111111111111111111111111111111111111-| (Repeat till end)

DeadHeadDraven
            

comments powered by Disqus
↑ Back to top | W.A.S.P. Bass for Wild Child. Lyrics for acoustic guitar and electric guitar. Tablatures and chords are parodies/interpretations of the original songs. You may use it for private study, scholarship, research or language learning purposes only