» » »

Washya, Retro Viral Detox Bass tabs (ver.1)

Artists:  A B C D E F G H I J K L M N O P Q R S T U V W X Y Z # 

Retro Viral Detox Bass tabs (ver.1)

Washya Tabs
 Rating:
4/5 (4 votes)
Retro Viral Detox lessons Tabs too difficult? Try these video lessons and learn fast
                
Drop D

Intro
G|-------------------------------------------------------------0-----|
D|-----------------------3---------------------------------2p0-------|
A|-3-5-----3-5-6-----3-4---4-3---------------------------0-----------|
D|-----3-5-------3-5------------5-3-2-1-0-2-2-2-1-1-0-0--------------|

Main Riff
G|-------------------------------------------------------------------|
D|-------------------------------------------------------------------|
A|-2-2-3-3-----------------5-5-4-4-3-3-----------------------1-1-1-1-|
D|---------5-5-6-6-1-1-1-1-------------5-5-3-3-2-2-1-1-1-0-0---------|

G|-------------------------------------------------------------------|
D|-----------------------5-7-9---------------------------------------|
A|-----------------3-3-3---------------------------------------------|
D|-3-5-2-2-5-5-5-5---------------------------------------------------|

Verses
G|-------------------------------10~-------------------7~-------------|
D|---------9~---------7~----------------------------10----------------|
A|-2-2-2-x---------------5-5-5-x-----------14-13-12-------------------|
D|------------2-2-2-x----------------12-14----------------------------|

During Solo
G|--------------------------------------------------------------------|
D|--------------------------------------------------------------------|
A|-------------------4-3-2-0-2-1--------------------------------------|
E|-0-3-3-0-5-5-5-0-4-------------0-3-3-3-3-5-5-5-5--------------------|
            
Submit corrections

comments powered by Disqus
↑ Back to top | Washya Bass for Retro Viral Detox. Lyrics for acoustic guitar and electric guitar. Tablatures and chords are parodies/interpretations of the original songs. You may use it for private study, scholarship, research or language learning purposes only