» » »

Washya, Retro Viral Detox Tabs (ver.1)

Artists:  A B C D E F G H I J K L M N O P Q R S T U V W X Y Z # 

Retro Viral Detox Tabs (ver.1)

Washya Tabs
 Rating:
4/5 (4 votes)
Retro Viral Detox lessons Tabs too difficult? Try these video lessons and learn fast
                
Tuning: Drop D (Dadgbe)
Intro
e|----------------------------------------------------------------0---------|
B|--------------------------------------------------------------0-----------|
G|---------------------------3--------------------------------2-------------|
D|-----------------------3-4---4-3---------2-----1-1-00-----2---------------|
A|-3-5-----3-5-6-----3-5-----------5-3---2---2---1-1-00---0-----------------|
D|-----3-5-------//--------------------2-------2-1-1-00-0-------------------|


Main Riff  
e|----------------------------------------------------------------------|
B|----------------------------------------------------------------------|
G|-4-4--4-4--5-5---------------------7-7/6-6/5-5------------------------|
D|-4-4--4-4--5-5--5-5--6-6-1-1--1-1--7-7/6-6/5-5-5-5-3-3-2-2-1-1-1------|
A|-2-2--2-2--3-3--5-5--6-6-1-1--1-1--5-5/4-4/3-3-5-5-3-3-2-2-1-1-1------|
D|----------------5-5--6-6-1-1--1-1--------------5-5-3-3-2-2-1-1-1------|


e|----------------------------------------------------|
B|-----------------------------------------7-9~-------|
G|-----3-3-3-3-------------------5-5-5-5-5------------|
D|-0-0-3-3-3-3-3-5-2-2-2-5-5-5-5-5-5-5-5--------------|
A|-0-0-1-1-1-1-3-5-2-2-2-5-5-5-5-3-3-3-3--------------|
D|-0-0---------3-5-2-2-2-5-5-5-5----------------------|



Verses
e|--------------------------------------------------12----------------------|
B|--------------------------------------------------12-----------------7~---|
G|-4-4-4-x-x------------------------7-7-7-7-/-10~-\-12--------------10------|
D|-4-4-4-x-x-/-9~-\-2-2-2-x-x-/-7~-\7-7-7-7---------12-----------12---------|
A|-2-2-2-x-x--------2-2-2-x-x-------5-5-5-5---------12-----14-13------------|
D|------------------2-2-2-x-x-----------------------12-14-------------------|
pm                                                  ...................



Solo
e|-------------------------------------10---------------------|
B|----------------------------------13----13-12-10----10--12~-|
G|-15b---------------------13-15-16----------------12---------|
D|-14b-16~--16-13----13-16------------------------------------|
A|----------------16------------------------------------------|
D|------------------------------------------------------------|

Back to main riff
            
Submit corrections

comments powered by Disqus
↑ Back to top | Washya Tabs for Retro Viral Detox. Lyrics for acoustic guitar and electric guitar. Tablatures and chords are parodies/interpretations of the original songs. You may use it for private study, scholarship, research or language learning purposes only