» » »

Washya, Paranormal Bass tabs (ver.1)

Artists:  A B C D E F G H I J K L M N O P Q R S T U V W X Y Z # 

Paranormal Bass tabs (ver.1)

Washya Tabs
Rating:
0/5 (0 votes)
Paranormal lessons Tabs too difficult? Try these video lessons and learn fast
                

Standard
Intro x 3
G|-------------------------------------------------------------|
D|------------------------4-5----------------------------------|
A|---2-3-----3-2-1-0----3-----7---------7-7-6-3-3-4-5----------|
E|-0-----0-4---------1----------9-9-9-9---------------5-1-1-1--|

Verses
G|------------0-------------------------------------|
D|----------8---6-----------------------------------|
A|-------6--------8---------------------------------|
E|-0-3-5------------5-3-0-0-0-0-3-3-7-7-7-10-10-----|

During Solo
G|-----------------------------------------------------------------|
D|-----------------------------------------------------------------|
A|-------------------------6-6-6-6---------6-6-6-6-----------------|
E|-2-2-2-2-5-5-5-5-1-1-1-1---------6-6-6-6---------3-3-3-3-2-2-1-1-|
            
Submit corrections

comments powered by Disqus
↑ Back to top | Washya Bass for Paranormal. Lyrics for acoustic guitar and electric guitar. Tablatures and chords are parodies/interpretations of the original songs. You may use it for private study, scholarship, research or language learning purposes only