» » »

Washya, Paranormal Tabs (ver.1)

Artists:  A B C D E F G H I J K L M N O P Q R S T U V W X Y Z # 

Paranormal Tabs (ver.1)

Washya Tabs
 Rating:
4/5 (4 votes)
Paranormal lessons Tabs too difficult? Try these video lessons and learn fast
1
                
Tuning: (EADgbe) Standard
INTRO x3
e|--------------------------------------------------------------------|
B|--------------------------------------------------------------------|
G|---------------------------------3-2---------2-3-2------------------|
D|-----------2~----------------------0-----0-----0-------0----------------|
A|---0-3-2-------------------------4-----------4-----------4--------------|
E|-0-------0---------------------2-----------2---------------2------------|


Verses
e|-------------------------------5-----------------3----------------------|
B|-------1-----------3---------6---6-------------4---4--------------------|
G|-----2---2-------4---4-----7-------7h8p7-5---5-------5h6p5-3-5-55-------|
D|---3-------3---5-------5-5-----------------3-----------------5-55-------|
A|-1-----------3-----------------------------------------------3-33-------|
E|------------------------------------------------------------------------|

Chorus
e|-----------------------------------|-------------------------|
B|-----------------------------------|-------------------------|
G|-----------------------------------|-8888-8888-5/7\5-2-------|
D|-----------------------------------|-8888-8888-5/7\5-2-5-3-2-|
A|-------------------5/7-7-5/7-7-8\7-|-6666-6666-3/5\3-0-5-3-2-|
E|-xx/////-pickslide-3/5-5-3/5-5-6\5-|-------------------3-1-0-|
                    (play many times)

Solo
e|------------------------------------------------------------------|
B|------------------------------------------------------------------|
G|------------------------------------------------------------------|
D|----------------------------------------------12-15-17-12-15-17---|
A|-------------------12-15-17----------12-15-17---------------------|
E|-12-15-17-12-15-17----------12-15-17------------------------------|
pm..............................................

e|---------------------------------------------------------------|
B|---------------------------------------------------------------|
G|----------------------------12-15-17----------12-15-17---------|
D|----------12-15-17-12-15-17----------12-15-17------------------|
A|-12-15-17------------------------------------------------------|
E|---------------------------------------------------------------|

e|----------------------------------------------12-15-17~--------|
B|----------12-15-17-12-15-17----------12-15-17------------------|
G|-12-15-17-------------------12-15-17---------------------------|
D|---------------------------------------------------------------|
A|---------------------------------------------------------------|
E|---------------------------------------------------------------|



e|-12h15h17p15p12h15h17p15p12h17p15p12h19p15p12h19p12h21b~-21-22-21------|
B|-----------------------------------------------------------------------|
G|-----------------------------------------------------------------------|
D|-----------------------------------------------------------------------|
A|-----------------------------------------------------------------------|
E|-----------------------------------------------------------------------|


e|-19------------------------------------------------------------|
B|----21-22-19-21-19-17------------------------------------------|
G|----------------------18-19-18-16-14-13-14-13-11---------------|
D|-------------------------------------------------13-14-13-11---|
A|---------------------------------------------------------------|
E|---------------------------------------------------------------|


e|------------------------------------------------------------------------|
B|------------------------------------------------------------------------|
G|------------------------------------------------------------------------|
D|----11--------------------------------------------------3-5-7-3-5-7-----|
A|-14----14-11-9------------------------------3-5-7-3-5-7-----------------|
E|---------------9-10-7-8-5-7-5-3-3-5-7-3-5-7-----------------------------|


e|-------------------------------------------------------3-5-7-------|
B|-------------------------------------------3-5-7-3-5-7-------------|
G|-3-5-7-3-5-7-------------------3-5-7-3-5-7-------------------------|
D|-------------3-5-7-------3-5-7-------------------------------------|
A|-------------------3-5-7-------------------------------------------|
E|-------------------------------------------------------------------|


e|-3-5-7-7h8h10p8p7h8h10/13p11p10h13p11p10h13/17p15p14h15h17/20p18p17|
B|-------------------------------------------------------------------|
G|-------------------------------------------------------------------|
D|-------------------------------------------------------------------|
A|-------------------------------------------------------------------|
E|-------------------------------------------------------------------|


e|-17h18h20p18p17h18h20p18p17/22-22-22~~~~----------------------------|
B|--------------------------------------------------------------------|
G|--------------------------------------------------------------------|
D|--------------------------------------------------------------------|
A|--------------------------------------------------------------------|
E|--------------------------------------------------------------------|

(BACK TO CHORUS)
            
Submit corrections

comments powered by Disqus
↑ Back to top | Washya Tabs for Paranormal. Lyrics for acoustic guitar and electric guitar. 1 Tablatures and chords are parodies/interpretations of the original songs. You may use it for private study, scholarship, research or language learning purposes only