» » »

Werewolves Of London Bass tabs (ver.1)

Artists:  A B C D E F G H I J K L M N O P Q R S T U V W X Y Z # 

Werewolves Of London Bass tabs (ver.1)

Warren Zevon
Rating:
0/5 (0 votes)

Hard to play? Try these video lessons and learn fast.
                Werewolves of London by Warren Zevon (Written by Warren Zevon, Robert Wachtel and LeRoy Marinel)
Key: D,  D-C-G   bmp=106
-3- = triplet
*A note with a dot on top of it signifies to play that note shorter than usual
I think I included virtually every single note in here, guaranteed 100% accuracy. The 
between notes in the tablature indicates relative duration but due to the triplet messing 
whole structure up at times, better check the duration signs on top of the note or rest. Enjoy!

Intro
  e   e      --3-  q  e e q  e   e e e e ee ee —3-  ee e e e ee -3----|
||----------------|----------------|---------------|------------------|
||----------------|----------------|---------.2h3p2|.--R---.--R-------|
||R---R------2H3H4|5---R-5-3--R--5-|.--R--.-.2-----|55---5-3-3—2h3p2--|
||----------------|----------------|3-3--33—3------|------------------|

  e e eee e e -3-  e e e eee e  -3-  e eee e e  e e  ee -3-  ee -3-----|
||----------------|-----------------|---------------|------------------|
||-----------2H3P2|.------.---------|---------------|.--2h3p2.---------|
||----R-R---2-----|5-5-R-533-R-2H3P2|---R---.-.-2-3-|55------33-2h3p2--|
||3-3--3--3-------|-----------------|3-3—-3-3—3-----|------------------|

 e e e e e e e e
|----------------||
|----------------||
|----R---.-.-2-3-||
|3-3---3-3-3-----||


Verse
  Q   e e e e e e q   e e e e e e  q    e e q   e e q  e e e e  -3-
||----------------|----------------|----------------|------------------|
||--------.-------|------------.---|----------------|----------.2h3p2--|
||5---R-5-3-3-R-3-|----R---.---2-3-|5---R-5-3---R-5-|-------.--2-------|
||----------------|3-----3-3-3-----|----------------|3--R-3-3-3--------|
 Q   e e q   e e  q  e e e e  -3- q   e e q   e e  q  e e e e e -3-  
|----------------|----------------|----------------|-------------------|
|----------------|----------.2h3p2|----------------|----------.2h3p2---|
|5---R-5-3---R-3-|-------.—-2-----|5---R-5-3---R-3-|-------.--2--------|
|----------------|3--R-3-3-3------|----------------|3--R-3-3-3---------|

Chorus 1
  E e e e e e e e  e e e e e e e e  q   e e q   e e  q   e e e e e e
||----------------|----------------|----------------|----------------|
||.-------.-.-----|----------------|----.-----------|------------.-.-|
||5-5-R-5-3-3-3-5-|.-.-------.-.-3-|5---R-5-3---R---|--------.-.-3-4-|
||----------------|3-3-3-2h3-3-3---|--------------2-|3---R-2h3-3-----|

 Q   e e q   e e  e e e e e e e e q   e e q   e e   q   e e e e -3-
|----------------|----------------|----------------|-----------------|
|----------------|------------.-.-|------.-------.-|-----------.2h3p2|
|5---R-2-3---R---|.---.---.-.-3-4-|5---R-5-3---R-5-|--------.--2-----|
|--------------2h|3-2h3-2h3-3-----|----------------|3---R-3-3-3------|

Chorus 2
  E e e e e e e e  e e e e e e e e  q   e e q   e e  q   e e e e e e
||----------------|----------------|----------------|----------------|
||.-------.-.-----|----------------|----.-----------|------------.-.-|
||5-5-R-5-3-3-3-5-|.-.-------.-.-3-|5---R-5-3---R---|--------.-.-3-4-|
||----------------|3-3-3-2h3-3-3---|--------------2-|3---R-2h3-3-----|


 Q   e e q   e e  e e e e e e e e q   e e q   e e   e e e e e e e e
|----------------|----------------|----------------|----------------||
|----------------|------------.-.-|------.-------.-|------------.-.-||
|5---R-2-3---R---|.---.---.-.-3-4-|5---R-5-3---R-5-|.-.-.-.-.-.-3-4-||
|--------------2h|3-2h3-2h3-3-----|----------------|3-3-3-3-3-3-----||


Guitar Solo
 Q   e e e  e -3- e e e e e e  sse q(+e) -3 q(+e)3- e e e e e e e e
|-----------------|----------------|----------------|------------------|
|------.-----2h3p2|--------------2-|---2h3p2--------|------------.-.---|
|5---R-5-3--R-----|.-.-.-.-.---25--|5-------3--2h3p2|.-.-.-.-.---2-3---|
|-----------------|3-3-3-3-3-3-----|----------------|3-3-3-3-3-3-------|
 Q+e -3- q+e  -3-  e e e e e e e e  q+e -3- q+e -3  e e e e e e e e
|-----------------|----------------|-----------------|-----------------|
|----2h3p2--------|------------.-.-|----2h3p2--------|-----------.-.---|
|5--------3--2h3p2|.-.-.-.-.---2-3-|5--------3--2h3p2|.-.-.---.-.-2-3--|
|-----------------|3-3-3-3-3-3-----|-----------------|3-3-3-R-3-3------|

Chorus 3
  E e e e e e e e  e e e e e e e e  q   e e q   e e  q   e e e e e e
||----------------|----------------|----------------|----------------|
||.-------.-.-----|----------------|----.-----------|------------.-.-|
||5-5-R-5-3-3-3-5-|.-.-------.-.-3-|5---R-5-3---R---|--------.-.-3-4-|
||----------------|3-3-3-2h3-3-3---|--------------2-|3---R-2h3-3-----|

 Q   e e q   e e  e e e e e e e e q    e e e e e e  e e e e e e  -3-
|----------------|----------------|---------------|------------------|
|----------------|------------.-.-|-------.-.-.---|-------------2h3p2|
|5---R-2-3---R---|.---.---.-.-3-4-|5--R-2-3-3-3---|.-.-.-.-.-2-5-----|
|--------------2h|3-2h3-2h3-3-----|-------------2-|3-3-3-3-3---------|


Verse 2

  Q   e e q  e e  q    e e q   e e  q    e e q   e e q   e e q   e e
||----------------|----------------|----------------|----------------|
||----------------|----------------|----------------|----------------|
||5---R-5-3---R-3-|----R-------R-3-|5---R-5-3---R-5-|--------------3-|
||----------------|3-----3-3-------|----------------|3---R-3-3---R---|
  Q   e e q  e e  q    e e q   e e  q    e e q   e e q  e e e e e e
|----------------|----------------|----------------|----------------|
|----------------|----------------|----------------|------------.-.-|
|5---R-5-3---R-3-|----R-------R-3-|5---R-5-3---R-5-|------.-.-.-2-3-|
|----------------|3-----3-3-------|----------------|3---R-3-3-3-----|

 Q   s e+s q e e  q   e e e e e e  q    e e q   e e q   e e q   e e
|----------------|----------------|----------------|----------------|
|----3p2----2h3p2|----------------|----------------|------------.-.-|
|5-------3-3-----|----R-------2-3-|5---R-5-3---R-3-|------.-.-.-2-3-|
|----------------|3-----3-3-3-----|----------------|3---R-3-3-3-----|

Outro
  q   e e e e e e  e e e e e e e e  q   e e e e e e  e e e e e e e e
||----------------|----------------|----------------|----------------|
||.-------.-.-----|------------.-.-|----------------|------------.-.-|
||5---R-2-3-2H3---|.-.-.-.-.-.-3-4-|5---R-2H3-3-3---|.-.-.-.-.-.-3-4-|
||--------------2H|3-3-3-3-3-3-----|--------------2H|3-3-3-3-3-3-----|
  sse e e e e e e  e e e e e e e e  e e e e e e e e  e e e e e e se s
|----------------|----------------|----------------|----------------|
|----------------|------------.-.-|.-.-.---.-.-.---|----------------|
|555-5-2h3-3-3---|.-.-.-.-.-.-2-3-|5-5-5-2h3-3-3---|.-.-.-.-.-.-.3-4|
|--------------2H|3-3-3-3-3-3-----|--------------2h|3-3-3-3-3-3-3---|

 E e e -3- e e e  e e  e e e e e e e e Repeat x2 and begin fading
|----------------------|-----------------|
|:-----2h3p2-----------|----------------:|
|:5-5-5-----3-3-3-2h3p2|.-.-.---.---.-3/:|
|----------------------|3-3-3-2h3-2h3----|

 Structure
Intro
Verse
Chorus 1
Verse
Chorus 2
Guitar Solo
Verse
Chorus 3
Verse 2
Outro
            
Hard to play? Try these video lessons and learn fast. | Correct




comments powered by Disqus
↑ Back to top | Tablatures and chords are parodies/interpretations of the original songs. You may use it for private study, scholarship, research or language learning purposes only