>
 >
Werewolves Of London

Werewolves Of London Bass Tabs

Warren Zevon - Werewolves Of London chords, tabs, tablatures, lyrics

Guitar lessons | Add/correct | Request | Top 50 tabs Artists:  A B C D E F G H I J K L M N O P Q R S T U V W X Y Z 0-9

Werewolves Of London Bass Tabs – Warren Zevon

CD, Sheet music, Poster

Do you like Werewolves Of London? Share with your friends now
Bass TabsChordsChords v2TabsTabs v2Tabs v3Ukulele
Werewolves of London by Warren Zevon (Written by Warren Zevon, Robert Wachtel and LeRoy Marinel)
Key: D,  D-C-G   bmp=106
-3- = triplet
*A note with a dot on top of it signifies to play that note shorter than usual
I think I included virtually every single note in here, guaranteed 100% accuracy. The 
between notes in the tablature indicates relative duration but due to the triplet messing 
whole structure up at times, better check the duration signs on top of the note or rest. Enjoy!

Intro
  e   e      --3-  q  e e q  e   e e e e ee ee 3-  ee e e e ee -3----|
||----------------|----------------|---------------|------------------|
||----------------|----------------|---------.2h3p2|.--R---.--R-------|
||R---R------2H3H4|5---R-5-3--R--5-|.--R--.-.2-----|55---5-3-32h3p2--|
||----------------|----------------|3-3--333------|------------------|

  e e eee e e -3-  e e e eee e  -3-  e eee e e  e e  ee -3-  ee -3-----|
||----------------|-----------------|---------------|------------------|
||-----------2H3P2|.------.---------|---------------|.--2h3p2.---------|
||----R-R---2-----|5-5-R-533-R-2H3P2|---R---.-.-2-3-|55------33-2h3p2--|
||3-3--3--3-------|-----------------|3-3-3-33-----|------------------|

 e e e e e e e e
|----------------||
|----------------||
|----R---.-.-2-3-||
|3-3---3-3-3-----||


Verse
  Q   e e e e e e q   e e e e e e  q    e e q   e e q  e e e e  -3-
||----------------|----------------|----------------|------------------|
||--------.-------|------------.---|----------------|----------.2h3p2--|
||5---R-5-3-3-R-3-|----R---.---2-3-|5---R-5-3---R-5-|-------.--2-------|
||----------------|3-----3-3-3-----|----------------|3--R-3-3-3--------|
 Q   e e q   e e  q  e e e e  -3- q   e e q   e e  q  e e e e e -3-  
|----------------|----------------|----------------|-------------------|
|----------------|----------.2h3p2|----------------|----------.2h3p2---|
|5---R-5-3---R-3-|-------.-2-----|5---R-5-3---R-3-|-------.--2--------|
|----------------|3--R-3-3-3------|----------------|3--R-3-3-3---------|

Chorus 1
  E e e e e e e e  e e e e e e e e  q   e e q   e e  q   e e e e e e
||----------------|----------------|----------------|----------------|
||.-------.-.-----|----------------|----.-----------|------------.-.-|
||5-5-R-5-3-3-3-5-|.-.-------.-.-3-|5---R-5-3---R---|--------.-.-3-4-|
||----------------|3-3-3-2h3-3-3---|--------------2-|3---R-2h3-3-----|

 Q   e e q   e e  e e e e e e e e q   e e q   e e   q   e e e e -3-
|----------------|----------------|----------------|-----------------|
|----------------|------------.-.-|------.-------.-|-----------.2h3p2|
|5---R-2-3---R---|.---.---.-.-3-4-|5---R-5-3---R-5-|--------.--2-----|
|--------------2h|3-2h3-2h3-3-----|----------------|3---R-3-3-3------|

Chorus 2
  E e e e e e e e  e e e e e e e e  q   e e q   e e  q   e e e e e e
||----------------|----------------|----------------|----------------|
||.-------.-.-----|----------------|----.-----------|------------.-.-|
||5-5-R-5-3-3-3-5-|.-.-------.-.-3-|5---R-5-3---R---|--------.-.-3-4-|
||----------------|3-3-3-2h3-3-3---|--------------2-|3---R-2h3-3-----|


 Q   e e q   e e  e e e e e e e e q   e e q   e e   e e e e e e e e
|----------------|----------------|----------------|----------------||
|----------------|------------.-.-|------.-------.-|------------.-.-||
|5---R-2-3---R---|.---.---.-.-3-4-|5---R-5-3---R-5-|.-.-.-.-.-.-3-4-||
|--------------2h|3-2h3-2h3-3-----|----------------|3-3-3-3-3-3-----||


Guitar Solo
 Q   e e e  e -3- e e e e e e  sse q(+e) -3 q(+e)3- e e e e e e e e
|-----------------|----------------|----------------|------------------|
|------.-----2h3p2|--------------2-|---2h3p2--------|------------.-.---|
|5---R-5-3--R-----|.-.-.-.-.---25--|5-------3--2h3p2|.-.-.-.-.---2-3---|
|-----------------|3-3-3-3-3-3-----|----------------|3-3-3-3-3-3-------|
 Q+e -3- q+e  -3-  e e e e e e e e  q+e -3- q+e -3  e e e e e e e e
|-----------------|----------------|-----------------|-----------------|
|----2h3p2--------|------------.-.-|----2h3p2--------|-----------.-.---|
|5--------3--2h3p2|.-.-.-.-.---2-3-|5--------3--2h3p2|.-.-.---.-.-2-3--|
|-----------------|3-3-3-3-3-3-----|-----------------|3-3-3-R-3-3------|

Chorus 3
  E e e e e e e e  e e e e e e e e  q   e e q   e e  q   e e e e e e
||----------------|----------------|----------------|----------------|
||.-------.-.-----|----------------|----.-----------|------------.-.-|
||5-5-R-5-3-3-3-5-|.-.-------.-.-3-|5---R-5-3---R---|--------.-.-3-4-|
||----------------|3-3-3-2h3-3-3---|--------------2-|3---R-2h3-3-----|

 Q   e e q   e e  e e e e e e e e q    e e e e e e  e e e e e e  -3-
|----------------|----------------|---------------|------------------|
|----------------|------------.-.-|-------.-.-.---|-------------2h3p2|
|5---R-2-3---R---|.---.---.-.-3-4-|5--R-2-3-3-3---|.-.-.-.-.-2-5-----|
|--------------2h|3-2h3-2h3-3-----|-------------2-|3-3-3-3-3---------|


Verse 2

  Q   e e q  e e  q    e e q   e e  q    e e q   e e q   e e q   e e
||----------------|----------------|----------------|----------------|
||----------------|----------------|----------------|----------------|
||5---R-5-3---R-3-|----R-------R-3-|5---R-5-3---R-5-|--------------3-|
||----------------|3-----3-3-------|----------------|3---R-3-3---R---|
  Q   e e q  e e  q    e e q   e e  q    e e q   e e q  e e e e e e
|----------------|----------------|----------------|----------------|
|----------------|----------------|----------------|------------.-.-|
|5---R-5-3---R-3-|----R-------R-3-|5---R-5-3---R-5-|------.-.-.-2-3-|
|----------------|3-----3-3-------|----------------|3---R-3-3-3-----|

 Q   s e+s q e e  q   e e e e e e  q    e e q   e e q   e e q   e e
|----------------|----------------|----------------|----------------|
|----3p2----2h3p2|----------------|----------------|------------.-.-|
|5-------3-3-----|----R-------2-3-|5---R-5-3---R-3-|------.-.-.-2-3-|
|----------------|3-----3-3-3-----|----------------|3---R-3-3-3-----|

Outro
  q   e e e e e e  e e e e e e e e  q   e e e e e e  e e e e e e e e
||----------------|----------------|----------------|----------------|
||.-------.-.-----|------------.-.-|----------------|------------.-.-|
||5---R-2-3-2H3---|.-.-.-.-.-.-3-4-|5---R-2H3-3-3---|.-.-.-.-.-.-3-4-|
||--------------2H|3-3-3-3-3-3-----|--------------2H|3-3-3-3-3-3-----|
  sse e e e e e e  e e e e e e e e  e e e e e e e e  e e e e e e se s
|----------------|----------------|----------------|----------------|
|----------------|------------.-.-|.-.-.---.-.-.---|----------------|
|555-5-2h3-3-3---|.-.-.-.-.-.-2-3-|5-5-5-2h3-3-3---|.-.-.-.-.-.-.3-4|
|--------------2H|3-3-3-3-3-3-----|--------------2h|3-3-3-3-3-3-3---|

 E e e -3- e e e  e e  e e e e e e e e Repeat x2 and begin fading
|----------------------|-----------------|
|:-----2h3p2-----------|----------------:|
|:5-5-5-----3-3-3-2h3p2|.-.-.---.---.-3/:|
|----------------------|3-3-3-2h3-2h3----|

 Structure
Intro
Verse
Chorus 1
Verse
Chorus 2
Guitar Solo
Verse
Chorus 3
Verse 2
Outro





Comments


Popular Warren Zevon tabs & chords
Back In The High Life Again 1 Chords
Hasten Down The Wind 1 Chords
Indifference Of Heaven Chords
Play It All Night Long Chords
Please Stay Chords
Things To Do In Denver When Youre Dead Chords
Frank And Jesse James Ukulele
Keep Me In Your Heart Ukulele
Play It All Night Long Ukulele
Poor Poor Pitiful Me Ukulele


Song lyrics



↑ Back to top | Tablatures and chords are parodies/interpretations of the original songs. You may use it for private study, scholarship, research or language learning purposes only
© 2014 AZChords.com Contact us | Privacy policy | DMCA | Add/correct tabs | Request tabs | Top 50 tabs