» » »

Warren Zevon, Excitable Boy Chords (ver.1)

Artists:  A B C D E F G H I J K L M N O P Q R S T U V W X Y Z # 

Excitable Boy Chords (ver.1)

Warren Zevon Tabs
 Rating:
3.5/5 (8 votes)
Excitable Boy lessons Tabs too difficult? Try these video lessons and learn fast
1
                -------------------------------------------------------------------------------
-------------------------------------------------------------------------------


	                    Hope you enjoy!

Tuning: Normal: E B G D A E

           Intro: Piano aranged for Guitar

e|--------9------------------------------------------------------------------|
B|---9-12---12--9--9-------------9---------------9---------------------------|
G|-------------------11-9--11-11-----9--11-11-11---9--------9--11-9----------| X2
D|-----------------------------------------------------9h11------------------|
A|---------------------------------------------------------------------------|
E|---------------------------------------------------------------------------|

e|----------------------------|
B|-----9--12-12-12-9----------|
G|--11---------------11-9-----|
D|----------------------------|
A|----------------------------|
E|----------------------------|



           E                        A
Well he came down to dinner in his Sunday best,
  F#m      E                A        E
Excitable boy, they all said.  
       E                       A
And he rubbed the pot roast all over his chest,
  F#m       E                 A       E
Excitable boy, they all said.  
          B                E
Well he's just an excitable boy.

He took in the four a.m. show at the Clark,
Excitable boy, they all said.  
And he bit the usherette's leg in the dark,
Excitable boy, they all said.  
Well he's just an excitable boy.

He took little Suzie to the junior prom,
Excitable boy, they all said.  
And he raped her and killed her and he took her home,
Excitable boy, they all said.  
Well he's just an excitable boy.

After ten long years, they let him out of the home,
Excitable boy, they all said.  
And he dug up her grave and made a cage with her bones,
Excitable boy, they all said.  
Well he's just an excitable boy.
            
Submit corrections

comments powered by Disqus
↑ Back to top | Warren Zevon Chords for Excitable Boy. Lyrics for acoustic guitar and electric guitar. 1 Tablatures and chords are parodies/interpretations of the original songs. You may use it for private study, scholarship, research or language learning purposes only