» » »

Werewolves Of London Tabs (ver.1)

Artists:  A B C D E F G H I J K L M N O P Q R S T U V W X Y Z # 

Werewolves Of London Tabs (ver.1)

Warren Zevon
Rating:
4/5 (5 votes)

Hard to play? Try these video lessons and learn fast.
                #------------------------------------------------------------------------------##
Status: OR

    Steve,

         I usually play this riff along with the piano part.  Play it in
    the same manner as the piano piece.  Just repeat it for the whole
    song.  I'm not too sure about the solo.  Enjoy.

    ---------------------------------------------------------------------|
    ---------------------------------------------------------------------|
    ---------------------------------------------------------------------|
    -9-7--7---7-5--5-5---------------------------------------------------|
    -5-5--5---3-3--3-3--5-5-7-5------------------------------------------|
    --------------------3-3-3-3------------------------------------------|


                                      Ed.


Lines: 27

Werewolves of London


   D   A           A    G

---2---0-----------0------------------|
---3---2-----------2----3-------------|
---2---2------2----2----0--------0----|
---0----------------------------------|
----------0--------0------------------|
-----------------------------3--------|

   D       D6 arpeggio
--------------------------------------|
---3-------0---3-----------0---3------|
---2---2---------------2--------------|
---0---------------0------------------|
--------------------------------------|
--------------------------------------|

repeat endlessly

--
************************************************************************
"Defend the life of Chairman Gonzalo!"  - Detroit freeway graffiti
************************************************************************


	id AA15988; Thu, 22 Jul 93 17:38:42 -0400
	id AA19246; Thu, 22 Jul 93 13:45:33 PDT
	id AA16957; Thu, 22 Jul 93 13:45:30 PDT
Status: OR

The chords are pretty simple: d (10th fret), C (8th fret), and
G (10th fret).  Goes something like:

D                     C                   G
Saw a werewolf with a Chinese menu in his hand

D                             C            G
Walkin' through the streets of Soho in the rain..

...and so on.

Hope this helps.
            
Hard to play? Try these video lessons and learn fast. | Correct




comments powered by Disqus
↑ Back to top | Tablatures and chords are parodies/interpretations of the original songs. You may use it for private study, scholarship, research or language learning purposes only